#----------------------------------PLEASE NOTE---------------------------------#
#This file is the author's own work and represents their interpretation of the #
#song. You may only use this file for private study, scholarship, or research. #
#------------------------------------------------------------------------------#

SCARIFIED
As recorded by Racer X
(From the 1987 Album SECOND HEAT)

Transcribed by Joe Lopez shred_420@hotmail.com

Music by Paul Gilbert & Bruce Bouillet
Arranged by Racer X


Gtr I (D# G# C# F# A# D#) - 'Gtr. 1'
Gtr II (D# G# C# F# A# D#) - 'Gtr. 2'

   Intro
    Q=143
   4/4
    Gtrs I, II
    PM------------------------|       PM----------------| ~
                        |-3-|                       |-3-|
    S S S S S S S S S S S S S E E   E E S S S S S S S S S Q
||--------------------------------|---------------------------|
||o-------------------------------|---------------------------|
||--------------------------------|---------------------4-6---|
||--------------------------------|---------------4-6-7-------|
||o-4-4-4-4-4-4-4-4---------2-4-4-|---------4-5-7-------------|
||--2-2-2-2-2-2-2-2-2-2-4-5-----2-|---2-5-7-------------------|


  PM------------------------|       PM----------------------|
                      |-3-|
  S S S S S S S S S S S S S E E   E E S S S S S S S S S S S S
|-------------------------------|-----------------------------|
|-------------------------------|-----------------------------|
|-------------------------------|-----7-6-4-------------------|
|-------------------------------|-----------7-6-4-------------|
|-4-4-4-4-4-4-4-4---------2-4-4-|-----------------7-5-4-------|
|-2-2-2-2-2-2-2-2-2-2-4-5-----2-|---2-------------------7-5-4-|


  PM------------------------|       PM----------------| ~
                      |-3-|                       |-3-|
  S S S S S S S S S S S S S E E   E E S S S S S S S S S Q
|-------------------------------|--------------------------|
|-------------------------------|--------------------------|
|-------------------------------|---------------------4-6--|
|-------------------------------|---------------4-6-7------|
|-4-4-4-4-4-4-4-4---------2-4-4-|---------4-5-7------------|
|-2-2-2-2-2-2-2-2-2-2-4-5-----2-|---2-5-7------------------|


  PM------------------------|       PM--------------|
                      |-3-|                    |-3--|
  S S S S S S S S S S S S S E E   E E S S  S S S  S S Q.
|-------------------------------|---------------------------||
|-------------------------------|--------------------------o||
|-------------------------------|-------------------7-9\----||
|-------------------------------|------------7-9-11---9\----||
|-4-4-4-4-4-4-4-4---------2-4-4-|-----7-9-11---------------o||
|-2-2-2-2-2-2-2-2-2-2-4-5-----2-|---2-----------------------||


 Verse
  Gtr II
   S  S  S  S  S  S  S  S  S  S  S  S  S  S  S  S
|-17p14----------------14-17p14-------------------|
|-------15----------15----------16----------------|
|----------14----14----------------16-14p11-------|
|-------------16----------------------------13----|
|----------------------------------------------14-|
|-------------------------------------------------|
|
| Gtr I
|  S  S  S  S  S  S  S  S  S  S  S  S  S  S  S  S
|-21p17-14----------14-17-21-17p14----------------|
|----------15----15----------------16-------------|
|-------------14----------------------18p14-------|
|-------------------------------------------16----|
|----------------------------------------------18-|
|-------------------------------------------------|


         |--3--|           |--3--|  |--3--|        |--3--|
   S  S  S  S  S  S  S  E  S  S  S  S  S  S  S  S  S  S  S
|-------------12-16p12----16p13-------------------------13--|
|----------12----------12-------15-------------------15-----|
|-------13-------------------------16p13-------13-16--------|
|----14----------------------------------15-15--------------|
|-14--------------------------------------------------------|
|-----------------------------------------------------------|
|
|        |--3--|           |--3--|  |--3--|        |--3--|
|  S  S  S  S  S  S  S  E  S  S  S  S  S  S  S  S  S  S  S
|-------------16-19p16----19p16-------------------------16--|
|----------17----------17-------18-------------------18-----|
|-------16-------------------------19p16-------16-19--------|
|-14-18----------------------------------18-18--------------|
|-----------------------------------------------------------|
|-----------------------------------------------------------|


   W           +H.       Q
|-14--------|-(14)------14\--|
|-----------|----------------|
|-----------|----------------|
|-----------|----------------|
|-----------|----------------|
|-----------|----------------|
|
|  W           +H.       Q
|-17--------|-(17)------17\--|
|-----------|----------------|
|-----------|----------------|
|-----------|----------------|
|-----------|----------------|
|-----------|----------------|


   S  S  S  S  S  S  S  S  S  S  S  S  S  S  S  S
|--------------------------------------------------|
|-10----------10----14-10-------10-12-10-14-10-----|
|----11-10-11----11-------11-13----------------11--|
|--------------------------------------------------|
|--------------------------------------------------|
|--------------------------------------------------|
|
|  S  S  S  S  S  S  S  S  S  S  S  S  S  S  S  S
|--9-----------9----14--9--------9-10--9-14--9-----|
|----10--9-10----10-------10-12----------------10--|
|--------------------------------------------------|
|--------------------------------------------------|
|--------------------------------------------------|
|--------------------------------------------------|


   S  S  S  S  S  S  S  S  S  S  S  S  S  S  S  S
|-------------------------------------------------|
|-15----------15----19-15-------15-17-15-19-15----|
|----16-15-16----16-------16-18----------------16-|
|-------------------------------------------------|
|-------------------------------------------------|
|-------------------------------------------------|
|
|  S  S  S  S  S  S  S  S  S  S  S  S  S  S  S  S
|-14----------14----19-14-------14-15-14-19-14----|
|----15-14-15----15-------15-17----------------15-|
|-------------------------------------------------|
|-------------------------------------------------|
|-------------------------------------------------|
|-------------------------------------------------|


   S  S  S  S  S  S  S  S  S  S  S  S  S  S  S  S
|-------------------------12-11-12----------------|
|-------------------12-------------12----12-------|
|-13----------13-------13-------------13----13----|
|----14-13-14----14----------------------------14-|
|-------------------------------------------------|
|-------------------------------------------------|
|
|  S  S  S  S  S  S  S  S  S  S  S  S  S  S  S  S
|-------------------12----16-14-16-12----12-------|
|-12----------12-------12-------------12----12----|
|----13-11-13----13----------------------------13-|
|-------------------------------------------------|
|-------------------------------------------------|
|-------------------------------------------------|


   S  S  S  S  S  S  S  S  S  S  S  S  S  S  S  S
|-------------------------17-16-17----------------|
|-------------------17-------------17----17-------|
|-18----------18-------18-------------18----18----|
|----19-18-19----19----------------------------19-|
|-------------------------------------------------|
|-------------------------------------------------|
|
|  S  S  S  S  S  S  S  S  S  S  S  S  S  S  S  S
|-------------------17----21-19-21-17----17-------|
|-17----------17-------17-------------17----17----|
|----18-16-18----18----------------------------18-|
|-------------------------------------------------|
|-------------------------------------------------|
|-------------------------------------------------|


   S  S  S  S  S  S  S  S  S  S  S  S  S  S  S  S
|-------------------------10--9-10----------------|
|-------------------10-------------10----10-------|
|-11----------11-------11-------------11----11----|
|----12-11-12----12----------------------------12-|
|-------------------------------------------------|
|-------------------------------------------------|
|
|  S  S  S  S  S  S  S  S  S  S  S  S  S  S  S  S
|-------------------10----14-12-14-10----10-------|
|-10----------10-------10-------------10----10----|
|----11--9-11----11----------------------------11-|
|-------------------------------------------------|
|-------------------------------------------------|
|-------------------------------------------------|


   S  S  S  S  S  S  S  S  S  S  S  S  S  S  S  S
|-------------------------16-14-16----------------|
|-12----------12----15-12----------15-12-15-12----|
|----13-11-13----13----------------------------13-|
|-------------------------------------------------|
|-------------------------------------------------|
|-------------------------------------------------|
|
|  S  S  S  S  S  S  S  S  S  S  S  S  S  S  S  S
|-------------------14----19-17-19-14----14-------|
|-15----------15-------15-------------15----15----|
|----16-14-16----16----------------------------16-|
|-------------------------------------------------|
|-------------------------------------------------|
|-------------------------------------------------|


   S  S  S  S  S  S S  S  S  S  S S  S S  S  S
|-------------------------9--8--9--------------|
|-------------------9-------------9----9-------|
|-10----------10------10------------10---10----|
|----11-10-11----11-------------------------11-|
|----------------------------------------------|
|----------------------------------------------|
|
|  S  S  S  S  S  S S  S  S  S  S S  S S  S  S
|-------------------9----13-11-13-9----9-------|
|--9-----------9-------9-------------9----9----|
|----10--8-10----10-------------------------10-|
|----------------------------------------------|
|----------------------------------------------|
|----------------------------------------------|


   S  S  S  S  S  S  S  S  S  S  S  S  S  S  S  S
|-------------------------14-12-10----------------|
|-10----------10----14-10----------14-12-10-------|
|----11-10-11----11-------------------------13-11-|
|-------------------------------------------------|
|-------------------------------------------------|
|-------------------------------------------------|
|
|  S  S  S  S  S  S  S  S  S  S  S  S  S  S  S  S
|--9-----------9----14--9-17-16-14----------------|
|----10--9-10----10----------------17-15-14-------|
|-------------------------------------------16-14-|
|-------------------------------------------------|
|-------------------------------------------------|
|-------------------------------------------------|


   S  S  S  S  S  S S  S  S  S  S S  S S  S  S
|-------------------------9--8--9--------------|
|-------------------9-------------9----9-------|
|-10----------10------10------------10---10----|
|----11-10-11----11-------------------------11-|
|----------------------------------------------|
|----------------------------------------------|
|
|  S  S  S  S  S  S S  S  S  S  S S  S S  S  S
|-------------------9----13-11-13-9----9-------|
|--9-----------9-------9-------------9----9----|
|----10--8-10----10-------------------------10-|
|----------------------------------------------|
|----------------------------------------------|
|----------------------------------------------|


                           |--3--|
   S  S  S  S  S  S  S  S  S  S  S  S  S  E  E
|-------------------------14-12----------14\---|
|-10----------10----14-10-------14-12----------|
|----11-10-11----11-------------------14-------|
|----------------------------------------------|
|----------------------------------------------|
|----------------------------------------------|
|
|                          |--3--|
|  S  S  S  S  S  S  S  S  S  S  S  S  S  E  E
|--9-----------9----14--9-17-16-14-------17\---|
|----10--9-10----10----------------17-14-------|
|----------------------------------------------|
|----------------------------------------------|
|----------------------------------------------|
|----------------------------------------------|


  Gtr I
   |--3--|  |--3--|  |--3--|  |--3--|  |--3--|  |--3--|  |--3--|  |--3--|
   S  S  S  S  S  S  S  S  S  S  S  S  S  S  S  S  S  S  S  S  S  S  S  S
|-------------------------------------------------------------------------|
|-------------------------------------------------------------------------|
|----------------------18p16h18h19p18-------------------16p14-16h18p16p14-|
|-16h18p16h18-19p18p16----------------16p14h16h18p16p14-------------------|
|-------------------------------------------------------------------------|
|-------------------------------------------------------------------------|


                                                                 ~~~
   |--3---|   |--3--|  |--3--|  |--3--|  |--3--|  |--3--|
   S  S  +S   S  S  S  S  S  S  S  S  S  S  S  S  S  S  S  T  T  E.
|-------------------------------------------------------------------|
|-------------------------------------------------------------------|
|---------------------14p13h14h16p14h15-16p14h16h18p16p14-18p16-18--|
|-14p12-(12)-16p14p12-----------------------------------------------|
|-------------------------------------------------------------------|
|-------------------------------------------------------------------|


  PM------------------------|       PM----------------| ~
                      |-3-|                       |-3-|
  S S S S S S S S S S S S S E E   E E S S S S S S S S S Q
|-------------------------------|----------------------------|
|-------------------------------|----------------------------|
|-------------------------------|---------------------4-6----|
|-------------------------------|---------------4-6-7--------|
|-4-4-4-4-4-4-4-4---------2-4-4-|---------4-5-7--------------|
|-2-2-2-2-2-2-2-2-2-2-4-5-----2-|---2-5-7--------------------|


  PM------------------------|       PM----------------------|
                      |-3-|
  S S S S S S S S S S S S S E E   E E S S S S S S S S S S S S
|-------------------------------|-----------------------------|
|-------------------------------|-----------------------------|
|-------------------------------|-----7-6-4-------------------|
|-------------------------------|-----------7-6-4-------------|
|-4-4-4-4-4-4-4-4---------2-4-4-|-----------------7-5-4-------|
|-2-2-2-2-2-2-2-2-2-2-4-5-----2-|---2-------------------7-5-4-|


  PM------------------------|     PM----------------| ~
                      |-3-|                     |-3-|
  S S S S S S S S S S S S S E E   S S S S S S S S S S Q
|-------------------------------|------------------------|
|-------------------------------|------------------------|
|-------------------------------|-------------------4-6--|
|-------------------------------|-------------4-6-7------|
|-4-4-4-4-4-4-4-4---------2-4-4-|-------4-5-7------------|
|-2-2-2-2-2-2-2-2-2-2-4-5-----2-|-2-5-7------------------|


  PM------------------------|       PM--------------|
                      |-3-|                    |-3--|
  S S S S S S S S S S S S S E E   E E S S  S S S  S S Q.
|-------------------------------|--------------------------|
|-------------------------------|--------------------------|
|-------------------------------|-------------------7-9\---|
|-------------------------------|------------7-9-11---9\---|
|-4-4-4-4-4-4-4-4---------2-4-4-|-----7-9-11---------------|
|-2-2-2-2-2-2-2-2-2-2-4-5-----2-|---2----------------------|


 verse
  Gtr II
   S  S  S  S  S  S  S  S  S  S  S  S  S  S  S  S
|-17p14----------------14-17p14-------------------|
|-------15----------15----------16----------------|
|----------14----14----------------16-14p11-------|
|-------------16----------------------------13----|
|----------------------------------------------14-|
|-------------------------------------------------|
|
| Gtr I
|  S  S  S  S  S  S  S  S  S  S  S  S  S  S  S  S
|-21p17-14----------14-17-21-17p14----------------|
|----------15----15----------------16-------------|
|-------------14----------------------18p14-------|
|-------------------------------------------16----|
|----------------------------------------------18-|
|-------------------------------------------------|


         |--3--|           |--3--|  |--3--|        |--3--|
   S  S  S  S  S  S  S  E  S  S  S  S  S  S  S  S  S  S  S
|-------------16-19p16----19p16-------------------------16--|
|----------17----------17-------18-------------------18-----|
|-------16-------------------------19p16-------16-19--------|
|-14-18----------------------------------18-18--------------|
|-----------------------------------------------------------|
|-----------------------------------------------------------|
|
|        |--3--|           |--3--|  |--3--|        |--3--|
|  S  S  S  S  S  S  S  E  S  S  S  S  S  S  S  S  S  S  S
|-------------16-19p16----19p16-------------------------16--|
|----------17----------17-------18-------------------18-----|
|-------16-------------------------19p16-------16-19--------|
|-14-18----------------------------------18-18--------------|
|-----------------------------------------------------------|
|-----------------------------------------------------------|


   W           H.       Q      S  S  S  S  S  S  S  S  S  S  S  S  S  S  S  S
|-14--------|-14-------14\--|--------------------------------------------------|
|-----------|---------------|-10----------10----14-10-------10-12-10-14-10-----|
|-----------|---------------|----11-10-11----11-------11-13----------------11--|
|-----------|---------------|--------------------------------------------------|
|-----------|---------------|--------------------------------------------------|
|-----------|---------------|--------------------------------------------------|
|
|  W           H.       Q      S  S  S  S  S  S  S  S  S  S  S  S  S  S  S  S
|-17--------|-17-------17\--|--9-----------9----14--9--------9-10--9-14--9-----|
|-----------|---------------|----10--9-10----10-------10-12----------------10--|
|-----------|---------------|--------------------------------------------------|
|-----------|---------------|--------------------------------------------------|
|-----------|---------------|--------------------------------------------------|
|-----------|---------------|--------------------------------------------------|


   S  S  S  S  S  S  S  S  S  S  S  S  S  S  S  S
|-------------------------------------------------|
|-15----------15----19-15-------15-17-15-19-15----|
|----16-15-16----16-------16-18----------------16-|
|-------------------------------------------------|
|-------------------------------------------------|
|-------------------------------------------------|
|
|  S  S  S  S  S  S  S  S  S  S  S  S  S  S  S  S
|-14----------14----19-14-------14-15-14-19-14----|
|----15-14-15----15-------15-17----------------15-|
|-------------------------------------------------|
|-------------------------------------------------|
|-------------------------------------------------|
|-------------------------------------------------|


   S  S  S  S  S  S  S  S  S  S  S  S  S  S  S  S
|-------------------------12-11-12----------------|
|-------------------12-------------12----12-------|
|-13----------13-------13-------------13----13----|
|----14-13-14----14----------------------------14-|
|-------------------------------------------------|
|-------------------------------------------------|
|
|  S  S  S  S  S  S  S  S  S  S  S  S  S  S  S  S
|-------------------12----16-14-16-12----12-------|
|-12----------12-------12-------------12----12----|
|----13-11-13----13----------------------------13-|
|-------------------------------------------------|
|-------------------------------------------------|
|-------------------------------------------------|


   S  S  S  S  S  S  S  S  S  S  S  S  S  S  S  S
|-------------------------17-16-17----------------|
|-------------------17-------------17----17-------|
|-18----------18-------18-------------18----18----|
|----19-18-19----19----------------------------19-|
|-------------------------------------------------|
|-------------------------------------------------|
|
|  S  S  S  S  S  S  S  S  S  S  S  S  S  S  S  S
|-------------------17----21-19-21-17----17-------|
|-17----------17-------17-------------17----17----|
|----18-16-18----18----------------------------18-|
|-------------------------------------------------|
|-------------------------------------------------|
|-------------------------------------------------|


   S  S  S  S  S  S  S  S  S  S  S  S  S  S  S  S
|-------------------------10--9-10----------------|
|-------------------10-------------10----10-------|
|-11----------11-------11-------------11----11----|
|----12-11-12----12----------------------------12-|
|-------------------------------------------------|
|-------------------------------------------------|
|
|  S  S  S  S  S  S  S  S  S  S  S  S  S  S  S  S
|-------------------10----14-12-14-10----10-------|
|-10----------10-------10-------------10----10----|
|----11--9-11----11----------------------------11-|
|-------------------------------------------------|
|-------------------------------------------------|
|-------------------------------------------------|


   S  S  S  S  S  S  S  S  S  S  S  S  S  S  S  S
|-------------------------16-14-16----------------|
|-12----------12----15-12----------15-12-15-12----|
|----13-11-13----13----------------------------13-|
|-------------------------------------------------|
|-------------------------------------------------|
|-------------------------------------------------|
|
|  S  S  S  S  S  S  S  S  S  S  S  S  S  S  S  S
|-------------------14----19-17-19-14----14-------|
|-15----------15-------15-------------15----15----|
|----16-14-16----16----------------------------16-|
|-------------------------------------------------|
|-------------------------------------------------|
|-------------------------------------------------|


   S  S  S  S  S  S S  S  S  S  S S  S S  S  S
|-------------------------9--8--9--------------|
|-------------------9-------------9----9-------|
|-10----------10------10------------10---10----|
|----11-10-11----11-------------------------11-|
|----------------------------------------------|
|----------------------------------------------|
|
|  S  S  S  S  S  S S  S  S  S  S S  S S  S  S
|-------------------9----13-11-13-9----9-------|
|--9-----------9-------9-------------9----9----|
|----10--8-10----10-------------------------10-|
|----------------------------------------------|
|----------------------------------------------|
|----------------------------------------------|


   S  S  S  S  S  S  S  S  S  S  S  S  S  S  S  S
|-------------------------14-12-10----------------|
|-10----------10----14-10----------14-12-10-------|
|----11-10-11----11-------------------------13-11-|
|-------------------------------------------------|
|-------------------------------------------------|
|-------------------------------------------------|
|
|  S  S  S  S  S  S  S  S  S  S  S  S  S  S  S  S
|--9-----------9----14--9-17-16-14----------------|
|----10--9-10----10----------------17-15-14-------|
|-------------------------------------------16-14-|
|-------------------------------------------------|
|-------------------------------------------------|
|-------------------------------------------------|


   S  S  S  S  S  S  S  S  S  S  S  S  S  S  S  S
|-------------------------11-10-11----------------|
|-------------------11-------------11----11-------|
|-12----------12-------12-------------12----12----|
|----13-12-13----13----------------------------13-|
|-------------------------------------------------|
|-------------------------------------------------|
|
|  S  S  S  S  S  S  S  S  S  S  S  S  S  S  S  S
|-------------------11----15-13-15-11----11-------|
|-11----------11-------11-------------11----11----|
|----12-10-12----12----------------------------12-|
|-------------------------------------------------|
|-------------------------------------------------|
|-------------------------------------------------|


                                                   3/4
                                                              ~~
                                                     |--3--|
   S  S  S  S  S  S  S  S  S  S  S  S  S  S  S  S    Q  Q  Q  Q
|-------------------------16-14-12----------------|--------------|
|-12----------12----16-12----------16-14-12-------|----------12--|
|----13-12-13----13-------------------------15-13-|-12-13-15-----|
|-------------------------------------------------|--------------|
|-------------------------------------------------|--------------|
|-------------------------------------------------|--------------|
|
|                                                             ~~
|                                                    |--3--|
|  S  S  S  S  S  S  S  S  S  S  S  S  S  S  S  S    Q  Q  Q  Q
|-11----------11----16-11-19-18-16----------------|--------------|
|----12-11-12----12----------------19-17-16-------|----------16--|
|-------------------------------------------18-16-|-15-16-18-----|
|-------------------------------------------------|--------------|
|-------------------------------------------------|--------------|
|-------------------------------------------------|--------------|


 guitar solo
           ~~~~~~~~~~~~                 ~~
   Q   Q   H       +H     E  E    E  E  H    Q
|---------18----|-(18)---------|----------------|
|---------------|--------------|----------------|
|---------------|--------------|-13-15-16-------|
|-18\-----------|-----------14-|----------------|
|---------------|--------------|----------------|
|---------------|--------------|----------------|


                                    ~~
   |--3--|        |--3--|  |--3--|
   E  E  E  S  S  S  S  S  E  E  E  H
|----16-18-18h19p18p16----16-------------|
|-17-------------------19----17----------|
|-------------------------------16-15----|
|----------------------------------------|
|----------------------------------------|
|----------------------------------------|


  Gtr I
                                                    |-3-| |-3-|
  E Q.    S S S S S T T T T T T   S S S S Q.    S S S S S S S S
|-------------------------------|-----4h6-7b9---7p6s4h6h7p6p4----|
|---------5p4-----7-5h7-5p4-----|-5h7-------------------------7--|
|---6b8-------6p4-----------6p4-|--------------------------------|
|-------------------------------|--------------------------------|
|-------------------------------|--------------------------------|
|-------------------------------|--------------------------------|


                                guitar solo 2
                            ~~~~~~~
              |-3-|
  S S S S S S S S S S S S S Q    E E T. T. T. T. T. T. T. T  E
|-4----------------------------|--------------------------------------|
|---7p5p4----------------------|--------------------------------------|
|---------6p4-3h4h6-4p3---4-4--|-4------------------------6-[8]b11----|
|-----------------------6------|-----------------6--8--9--------------|
|------------------------------|--------6--7--9-----------------------|
|------------------------------|-----9--------------------------------|


   |--3--|  |--3--|       |--3--|  |--3--|
   S  S  S  S  S  S  S S  S  S  S  S  S  S  T  T  T  T  S  S  S  S
|-------16h19p16------------------------16h21p16-------19-----------|
|-16h19----------19p16------------16h19----------19p16--------------|
|------------------------------16-----------------------------------|
|------------------------16h18----------------------------18p16-----|
|-------------------------------------------------------------------|
|---------------------------------------------------------------19\-|


  Gtr II
   ~~~~~~~~~~
   Q.    +S  S  H
|---------------------|
|---------------------|
|---------------------|
|---------------------|
|--------------16\----|
|-16----(16)----------|


  |-3-|          |-3-|  |-3-|
  E E E S S S S  E E E  E E E   E  E S E.  Q.    E
|-----------------------------|--------------------|
|-----------------------------|-----------------16-|
|-------------------------8-9-|-8----8h9--[8]------|
|------------------8-9-11-----|---11---------------|
|---------6-7-9-11------------|--------------------|
|-4-6h7-9---------------------|--------------------|


   |--3--|
   S  S  S  S  S  S  T  T  S  S  Q      S  S  S  S
|-16h18p16----16-19-18p16----16-19b23--19-18p16----|
|----------19-------------19--------------------19-|
|--------------------------------------------------|
|--------------------------------------------------|
|--------------------------------------------------|
|--------------------------------------------------|


                  ~~
   S  E.    E  E  Q   Q
|-16----------------------|
|----19b21-19-19-19--19\--|
|-------------------------|
|-------------------------|
|-------------------------|
|-------------------------|


                                                               3/4
                                                                        ~~~~~
   |--3--|                          |--3--|
   S  S  S  S  S  S  S  S  S  S  S  S  S  S  S  T  T  T  T  S    Q      H
|-11h12p11----11-14p12----16p14----18p16----16-19p18p16----16-|-18b20--19b23----|
|----------14----------15-------17-------19-------------18----|-----------------|
|-------------------------------------------------------------|-----------------|
|-------------------------------------------------------------|-----------------|
|-------------------------------------------------------------|-----------------|
|-------------------------------------------------------------|-----------------|


 5/4
                     |--3--|       |--3--|         |--3--|      |-3--|
   S  S  S  S  S  S  S  S  S  S S  S  S  S  T  S.  S  S  S  S S S  S S
|------------------------------------------12p11---------9-11----------|
|----------------------------------9-11-12--------11-12--------------9-|
|---------------------------------------------------------------9-11---|
|-13-14-11-13-14-11-11-13-14-13----------------------------------------|
|----------------------------------------------------------------------|
|----------------------------------------------------------------------|
|
| Gtr I
|                                  |--3--|         |--3--|      |-3--|
|  H                          E    S  S  S  T  S.  S  S  S  S S S  S S
|------------------------------------------16p14--------12-14--------7-|
|---------------------------------12-14-16--------14-16---------9-11---|
|----------------------------------------------------------------------|
|----------------------------------------------------------------------|
|----------------------------------------------------------------------|
|----------------------------------------------------------------------|


 Bridge
 4/4
   |-3--|  |-3--|  |-3--|   |-3--|  |-3--|  |-3--|   |-3--|  |-3--|
   S S +S  S  S S  S S +S   S S +S  S  S S  S S +S   S S +S  S  S S
|-------------------------------------------------------------------|
|-11p9-(9)------9-11p9-(9)-11p9-(9)------9-11p9-(9)-11p9-(9)------9-|
|----------9-11---------------------9-11---------------------9-11---|
|-------------------------------------------------------------------|
|-------------------------------------------------------------------|
|-------------------------------------------------------------------|
|
|  |-3--|  |-3--|  |-3--|   |-3--|  |-3--|  |-3--|   |-3--|  |-3--|
|  S S +S  S  S S  S S +S   S S +S  S  S S  S S +S   S S +S  S  S S
|--9p7-(7)------7--9p7-(7)--9p7-(7)------7--9p7-(7)--9p7-(7)------7-|
|----------9-11---------------------9-11---------------------9-11---|
|-------------------------------------------------------------------|
|-------------------------------------------------------------------|
|-------------------------------------------------------------------|
|-------------------------------------------------------------------|


   |-3--|  |-3--|  |-3--|   |-3--|  |-3--|  |-3--|   |-3--|  |-3--|
   S S +S  S  S S  S S +S   S S +S  S  S S  S S +S   S S +S  S  S S
|-------------------------------------------------------------------|
|-11p9-(9)------9-11p9-(9)-11p9-(9)------9-11p9-(9)-11p9-(9)------9-|
|----------9-11---------------------9-11---------------------9-11---|
|-------------------------------------------------------------------|
|-------------------------------------------------------------------|
|-------------------------------------------------------------------|
|
|  |-3--|  |-3--|  |-3--|   |-3--|  |-3--|  |-3--|   |-3--|  |-3--|
|  S S +S  S  S S  S S +S   S S +S  S  S S  S S +S   S S +S  S  S S
|--9p7-(7)------7--9p7-(7)--9p7-(7)------7--9p7-(7)--9p7-(7)------7-|
|----------9-11---------------------9-11---------------------9-11---|
|-------------------------------------------------------------------|
|-------------------------------------------------------------------|
|-------------------------------------------------------------------|
|-------------------------------------------------------------------|


   |-3--|  |-3--|  |-3--|   |-3--|  |-3--|  |-3--|
   S S +S  S  S S  S S +S   S S +S  S  S S  S S +S   Q
|---------------------------------------------------------------|
|-11p9-(9)------9-11p9-(9)-11p9-(9)------9-11p9-(9)-11/---------|
|----------9-11---------------------9-11------------------------|
|---------------------------------------------------------------|
|---------------------------------------------------------------|
|---------------------------------------------------------------|
|
|  |-3--|  |-3--|  |-3--|   |-3--|  |-3--|  |-3--|
|  S S +S  S  S S  S S +S   S S +S  S  S S  S S +S   S  S  S  S
|--9p7-(7)------7--9p7-(7)--9p7-(7)------7--9p7-(7)--9/------16-|
|----------9-11---------------------9-11------------------19----|
|---------------------------------------------------------------|
|---------------------------------------------------------------|
|---------------------------------------------------------------|
|---------------------------------------------------------------|


  Gtrs I, II
               |--3---|   |--3--|                    |--3--|
   S  S  S  S  S  S  +S   S  S  S  S  S  T  T  T  T  S  S  S  S  T  T
|-16p14----14h17-16-(16)-17p16p14----14----------------------14-------|
|-------17------------------------17-14-17p15p14----14h15h17----17-15h|
|------------------------------------------------16-------------------|
|---------------------------------------------------------------------|
|---------------------------------------------------------------------|
|---------------------------------------------------------------------|


   |--3--|        |---3----|
   S  S  S  S  S  E  E     E     H
|----------------------------------------|
|-17p15p14----14-17-17b19-17b19-17b19----|
|----------17----------------------------|
|----------------------------------------|
|----------------------------------------|
|----------------------------------------|


  PM------------------------|       PM----------------| ~
                      |-3-|                       |-3-|
  S S S S S S S S S S S S S E E   E E S S S S S S S S S Q
|-------------------------------|--------------------------|
|-------------------------------|--------------------------|
|-------------------------------|---------------------4-6--|
|-------------------------------|---------------4-6-7------|
|-4-4-4-4-4-4-4-4---------2-4-4-|---------4-5-7------------|
|-2-2-2-2-2-2-2-2-2-2-4-5-----2-|---2-5-7------------------|


                                  Gtr I
  PM------------------------|       PM----------------|
                      |-3-|
  S S S S S S S S S S S S S E E   E E S S S S S S S S E E
|-------------------------------|-------------------------|
|-------------------------------|-------------------------|
|-------------------------------|-------------------------|
|-------------------------------|-------------------------|
|-4-4-4-4-4-4-4-4---------2-4-4-|-----5-4-2-----2-4-2-4---|
|-2-2-2-2-2-2-2-2-2-2-4-5-----2-|---2-------5-5-----------|


  Gtr II
   |--3--|                 |--3--|  |--3--|  |--3--|  |--3--|
   S  S  S  E  S  S  S  S  S  S  S  S  S  S  S  S  S  S  S  S
|--9--------------------9-12p=9h12p=9----12-14p12-14p12--9----|
|----10-------------10----------------10-------------------10-|
|-------11p=9--9h11-------------------------------------------|
|-------------------------------------------------------------|
|-------------------------------------------------------------|
|-------------------------------------------------------------|
|
| Gtr I
|  |--3--|                 |--3--|  |--3--|  |--3--|  |--3--|
|  S  S  S  E  S  S  S  S  S  S  S  S  S  S  S  S  S  S  S  S
|-12-------------------12-16-12-16-12----16-17p16h17p16p12----|
|----14-------------14----------------14-------------------14-|
|-------14p13-13h14-------------------------------------------|
|-------------------------------------------------------------|
|-------------------------------------------------------------|
|-------------------------------------------------------------|


   |--3--|                 |--3--|  |--3--|  |--3--|  |--3--|
   S  S  S  E  S  S  S  S  S  S  S  S  S  S  S  S  S  S  S  S
|--9--------------------9-12p=9h12p=9----12-14p12-14p12--9----|
|----10-------------10----------------10-------------------10-|
|-------11p=9--9h11-------------------------------------------|
|-------------------------------------------------------------|
|-------------------------------------------------------------|
|-------------------------------------------------------------|
|
|  |--3--|                 |--3--|  |--3--|  |--3--|  |--3--|
|  S  S  S  E  S  S  S  S  S  S  S  S  S  S  S  S  S  S  S  S
|-12-------------------12-16-12-16-12----16-17p16h17p16p12----|
|----14-------------14----------------14-------------------14-|
|-------14p13-13h14-------------------------------------------|
|-------------------------------------------------------------|
|-------------------------------------------------------------|
|-------------------------------------------------------------|


                          |--3--|  |--3--|  |--3--|  |--3--|
   S S  S  S  S  S  S  S  S  S  S  S  S  S  S  S  S  S  S  S
|-12p9--------------9-12-15p12h15p12----11-18p15h18p15-------|
|------11-------11-------------------14----------------17-16-|
|---------12--9----------------------------------------------|
|------------------------------------------------------------|
|------------------------------------------------------------|
|------------------------------------------------------------|
|
|                         |--3--|  |--3--|  |--3--|  |--3--|
|  S S  S  S  S  S  S  S  S  S  S  S  S  S  S  S  S  S  S  S
|-12p9-----------------9-12p=9-12p=9-----9-15p12h15p12-------|
|------11----------11----------------11----------------14-13-|
|---------12----12-------------------------------------------|
|------------11----------------------------------------------|
|------------------------------------------------------------|
|------------------------------------------------------------|


   |---3---|                    |--3--|  |--3--|  |--3--|  |--3--|
   S  S    S  E     S  S  S  S  S  S  S  S  S  S  S  S  S  S  S  S
|-15p12---------------------15-18p15-18p15----15-21p18-21p18-------|
|---------14-------------17----------------17----------------20----|
|------------15----15h18----------------------------------------19-|
|------------------------------------------------------------------|
|------------------------------------------------------------------|
|------------------------------------------------------------------|
|
|                               |--3--|  |--3--|  |--3--|  |--3--|
|  S    S     S  S  S  S  S  S  S  S  S  S  S  S  S  S  S  S  S  S
|-12p===9-----------------9-12-15p12-15p12----12-18p15-18p15-------|
|------------11-------11-------------------14----------------17-15-|
|---------------12p11----------------------------------------------|
|------------------------------------------------------------------|
|------------------------------------------------------------------|
|------------------------------------------------------------------|


   |--3--|                 |--3--|  |--3--|  |--3--|  |--3--|
   S  S  S  E  S  S  S  S  S  S  S  S  S  S  S  S  S  S  S  S
|-11-------------------11-14p11-14p11----11-18p14h18p14-11----|
|----12-------------12----------------12-------------------12-|
|-------13p11-11h13-------------------------------------------|
|-------------------------------------------------------------|
|-------------------------------------------------------------|
|-------------------------------------------------------------|
|
|  |--3--|                 |--3--|  |--3--|  |--3--|  |--3--|
|  S  S  S  E  S  S  S  S  S  S  S  S  S  S  S  S  S  S  S  S
|-14-------------------14-18p14-18p14----14-19p18-19p18p14----|
|----16-------------16----------------16-------------------16-|
|-------16p15-15h16-------------------------------------------|
|-------------------------------------------------------------|
|-------------------------------------------------------------|
|-------------------------------------------------------------|


   |--3--|                 |--3--|  |--3--|  |--3--|  |--3--|
   S  S  S  E  S  S  S  S  S  S  S  S  S  S  S  S  S  S  S  S
|-11-------------------11-14p11-14p11----11-18p14h18p14-11----|
|----12-------------12----------------12-------------------12-|
|-------13p11-11h13-------------------------------------------|
|-------------------------------------------------------------|
|-------------------------------------------------------------|
|-------------------------------------------------------------|
|
|  |--3--|                 |--3--|  |--3--|  |--3--|  |--3--|
|  S  S  S  E  S  S  S  S  S  S  S  S  S  S  S  S  S  S  S  S
|-14-------------------14-18p14-18p14----14-19p18-19p18p14----|
|----16-------------16----------------16-------------------16-|
|-------16p15-15h16-------------------------------------------|
|-------------------------------------------------------------|
|-------------------------------------------------------------|
|-------------------------------------------------------------|


                           |--3--|  |--3--|  |--3--|  |--3--|
   S  S  S  S  S  S  S  S  S  S  S  S  S  S  S  S  S  S  S  S
|-10p=7-----------------7-13p10h13p10----10-16p13h16p13-------|
|--------9-----------9----------------12----------------15-14-|
|----------10----10-------------------------------------------|
|--------------9----------------------------------------------|
|-------------------------------------------------------------|
|-------------------------------------------------------------|
|
|                          |--3--|  |--3--|  |--3--|  |--3--|
|  S  S  S  S  S  S  S  S  S  S  S  S  S  S  S  S  S  S  S  S
|-13p10----------------10-16p13h16p13----13-19p16-19p16-------|
|-------12----------12----------------15----------------18-17-|
|----------13----13-------------------------------------------|
|-------------12----------------------------------------------|
|-------------------------------------------------------------|
|-------------------------------------------------------------|


                           |--3--|  |--3--|      |--3--|
   S  S  S  S  S  S  S  S  S  S  S  S  S  S  E   S  S  S
|-16p13----------------13-19p16h19p16----16-22\----------|
|-------15----------15----------------18--------------11-|
|----------16----16------------------------------9-11----|
|-------------15-----------------------------------------|
|--------------------------------------------------------|
|--------------------------------------------------------|
|
|                          |--3--|  |--3--|      |--3--|
|  S  S  S  S  S  S  S  S  S  S  S  S  S  S  E   S  S  S
|-13p10----------------10-16p13h16p13----13-19\----------|
|-------12----------12----------------15-----------------|
|----------13----13--------------------------------------|
|-------------12--------------------------------11-12-14-|
|--------------------------------------------------------|
|--------------------------------------------------------|


      |--3--|     |--3--|     |--3--|     |--3--|
   E  S  S  S  E  S  S  S  E  S  S  S  E  S  S  S
|-------------------------------------11-------11-|
|-12-----9-10-12----11-12-14-11-12-14----12-14----|
|----11----------13-------------------------------|
|-------------------------------------------------|
|-------------------------------------------------|
|-------------------------------------------------|
|
|     |--3--|     |--3--|     |--3--|     |--3--|
|  E  S  S  S  E  S  S  S  E  S  S  S  E  S  S  S
|-------------------------------------------------|
|-------------------------------------12-------12-|
|-11-------11-13----11-13-14-11-13-14----13-14----|
|----12-14-------14-------------------------------|
|-------------------------------------------------|
|-------------------------------------------------|


   ~~
   Q   E  E  E E Q
|-12--12\---12------*|
|-------------------*|
|-------------------*|
|-------------------*|
|-------------------*|
|-------------------*|
|
|  ~~
|  Q   E  E  E E Q
|-------------------*|
|-14--14\---14------*|
|-------------------*|
|-------------------*|
|-------------------*|
|-------------------*|



Duration Legend
---------------
W - whole; H - half; Q - quarter; E - 8th; S - 16th; T - 32nd; X - 64th; a - acciaccatura
+ - note tied to previous; . - note dotted; .. - note double dotted
Uncapitalized letters represent notes that are staccato (1/2 duration)
Irregular groupings are notated above the duration line
Duration letters will always appear directly above the note/fret number it represents the
duration for.  Duration letters with no fret number below them represent rests.  Multi-
bar rests are notated in the form Wxn, where n is the number of bars to rest for.  Low
melody durations appear below the staff

Tablature Legend
----------------
 h   - hammer-on
 p   - pull-off
 b   - bend
 pb  - pre-bend
 r   - bend release (if no number after the r, then release immediately)
 /\  - slide into or out of (from/to "nowhere")
 s   - legato slide
 S   - shift slide
<n> - natural harmonic
[n]  - artificial harmonic
n(n) - tapped harmonic
 ~   - vibrato
 tr  - trill
 T   - tap
 TP  - trem. picking
 PM  - palm muting
\n/  - tremolo bar dip; n = amount to dip
 \n  - tremolo bar down
 n/  - tremolo bar up
/n\  - tremolo bar inverted dip
 =   - hold bend; also acts as connecting device for hammers/pulls
 <> - volume swell (louder/softer)
 x   - on rhythm slash represents muted slash
 o   - on rhythm slash represents single note slash

Misc Legend
-----------
 |  - bar
||  - double bar
||o - repeat start
o|| - repeat end
*|  - double bar (ending)
 :  - bar (freetime)
 $  - Segno
 &  - Coda
Tempo markers - <E/E./Q/Q./H/H.> = BPM(8/16=s8/s16), where s8 = swing 8ths, s16 = swing 16ths


** Generated using Power Tab Editor by Brad Larsen: The Official Power Tab Web Site