#----------------------------------PLEASE NOTE---------------------------------#
#This file is the author's own work and represents their interpretation of the #
#song. You may only use this file for private study, scholarship, or research. #
#------------------------------------------------------------------------------#

I'LL SEE THE LIGHT TONIGHT
As recorded by YNGWIE MALMSTEEN
(From the 1985 Album MARCHING OUT)

Transcribed by Joe Lopez

Music by Yngwie Malmsteen


Gtr I (Eb Ab Db Gb Bb Eb) - 'gtr 1'
Gtr II (Eb Ab Db Gb Bb Eb) - 'gtr 2'

 Intro Free Tempo
 4/4
  Gtr I
               <                   <           <
                                               \7
                                   ~~
  W            H         +H        W           W
|----------||-14pb15r===(14)----|-----------|--------|
|----------||-------------------|-12--------|--------|
|----------||-------------------|-----------|-11-----|
|----------||-------------------|-----------|--------|
|----------||-------------------|-----------|--------|
|----------||-------------------|-----------|--------|


        Q=146
 2/4                         4/4
  Q  Q    S S S S S S S S      E S S S S E S S S S  E S S
|-------|-----------------||------------------------------|
|-------|-----------------||o-----------------------------|
|-------|-----------------||--10---------9---------10-----|
|-------|---------5-3p2p0-||---7---------7----------7-----|
|-xs=x--|-5-3p2p0---------||o----0-0-0-0---0-0-0-0----0-0-|
|-------|-----------------||------------------------------|


      ~
  S S E +E  E S S S S S S S S   3x
|-------------------------------||
|------------------------------o||
|-----9-(9)---------------------||
|-----7-(7)-----------5-3p2p0---||
|-0-0-------0-5-3p2p0----------o||
|-------------------------------||


    ~~     ~~                      ~~~
  E Q.   E Q.     E E  E  E  a  E  Q.
|---------------|-----------------------|
|---------------|-----------------------|
|---------------|-----------------------|
|---------------|-----------------------|
|-2------5------|-8---11----11s14-------|
|---1------4----|---7----10-------13\---|


                                      ~
     E S S S S E S S S S  E S S   S S E +E  E S S S S S S S S   3x
||------------------------------|-------------------------------||
||o-----------------------------|------------------------------o||
||--10---------9---------10-----|-----9-(9)---------------------||
||---7---------7----------7-----|-----7-(7)-----------5-3p2p0---||
||o----0-0-0-0---0-0-0-0----0-0-|-0-0-------0-5-3p2p0----------o||
||------------------------------|-------------------------------||


    ~~     ~~     PM-----|         ~~~
  E Q.   E Q.     e e  e  e  a  E  Q.     W          +H.      Q
|---------------|-----------------------|----------|--------------|
|---------------|-----------------------|----------|--------------|
|---------------|-----------------------|-2--------|-(2)----------|
|---------------|-----------------------|-2--------|-(2)----------|
|-2------5------|-8---11----11s14-------|-0--------|-(0)----------|
|---1------4----|---7----10-------13\---|----------|--------------|


   Verse
    $
    ~~~~~~~~~~~~    ~~~~~~~~~~~~~~~~~~~~~~~     ~~~
    H.      +E  E   W          H.      +E  E   +W
||----------------|----------|---------------|--------|
||o---------------|----------|-------------8-|-(8)----|
||--7-------(7)-7s|=9--------|-7-------(7)-7-|-(7)----|
||--7-------(7)-7s|=9--------|-7-------(7)-9-|-(9)----|
||o---------------|----------|---------------|--------|
||----------------|----------|---------------|--------|


  ~    PM------|        ~~~
  H    e s s s  S  E   +W           H.      +E  E   +H.      Q
|--------------------|------------|---------------|--------------|
|--------------------|------------|-2-------(2)---|--------------|
|-7----------------9-|-(9)--------|-2-------(2)---|--------------|
|-7----------------9-|-(9)--------|-2-------(2)-2-|-(2)----------|
|--------------------|------------|-------------2-|-(2)----------|
|------7-7-7-7-(7)---|------------|-------------0-|-(0)----------|


    ~~               ~~~~~~~~~~~~~~~~~~~~~~~~     ~~~
  a H.      +E  E   +W           H.      +E  E   +W
|-----------------|------------|---------------|--------|
|-----------------|------------|-------------8-|-(8)----|
|-6s7-------(7)-9-|-(9)--------|-7-------(7)-7-|-(7)----|
|-6s7-------(7)-9-|-(9)--------|-7-------(7)-9-|-(9)----|
|-----------------|------------|---------------|--------|
|-----------------|------------|---------------|--------|


  ~~~~~~~~~~~~     ~~~
  H.      +E  E   +W           H.      +E  E   +H.      Q
|---------------|------------|---------------|--------------||
|---------------|------------|-2-------(2)---|--------------||
|-7-------(7)-9-|-(9)--------|-2-------(2)---|--------------||
|-7-------(7)-9-|-(9)--------|-2-------(2)-2-|-(2)----------||
|---------------|------------|-------------2-|-(2)----------||
|---------------|------------|-------------0-|-(0)----------||


 Chorus
                                    ~
   E S S S S E S S S S  E S S   S S E +E  E S S S S S S S S
|-----------------------------|-----------------------------|
|-----------------------------|-----------------------------|
|-10---------9---------10-----|-----9-(9)-------------------|
|--7---------7----------7-----|-----7-(7)-----------5-3p2p0-|
|----0-0-0-0---0-0-0-0----0-0-|-0-0-------0-5-3p2p0---------|
|-----------------------------|-----------------------------|


                                    ~
   E S S S S E S S S S  E S S   S S E +E  E S S S S S S S S
|-----------------------------|--------------------------------|
|-----------------------------|--------------------------------|
|-10---------9---------10-----|-----9-(9)----------------------|
|--7---------7----------7-----|-----7-(7)-----------5-3p2p0----|
|----0-0-0-0---0-0-0-0----0-0-|-0-0-------0-5-3p2p0------------|
|-----------------------------|--------------------------------|


                                    ~
   E S S S S E S S S S  E S S   S S E +E  E S S S S S S S S
|-----------------------------|-----------------------------|
|-----------------------------|-----------------------------|
|-10---------9---------10-----|-----9-(9)-------------------|
|--7---------7----------7-----|-----7-(7)-----------5-3p2p0-|
|----0-0-0-0---0-0-0-0----0-0-|-0-0-------0-5-3p2p0---------|
|-----------------------------|-----------------------------|


                                         1.
                                 To Coda
    ~~     ~~     PM-----|         ~~~
  E Q.   E Q.     e e  e  e  a  E  Q.     H.      Q
|---------------|-----------------------|---------------||
|---------------|-----------------------|--------------o||
|---------------|-----------------------|-2-------------||
|---------------|-----------------------|-2-------------||
|-2------5------|-8---11----11s14-------|-0------------o||
|---1------4----|---7----10-------13\---|---------------||


                          Interlude
  2.
  W          +W             S  S  S  S  S  S  S  S S  S  S  S S  S  S  S
|----------|------------||-10-13-12-13-10-13-12-13-8-12-10-12-8-12-10-12-|
|----------|------------||-----------------------------------------------|
|-2--------|-(2)--------||-----------------------------------------------|
|-2--------|-(2)--------||-----------------------------------------------|
|-0--------|-(0)--------||-----------------------------------------------|
|----------|------------||-----------------------------------------------|


  S  S S  S S  S S  S S S S S S S S S
|-7-10-8-10-7-10-8-10-5-8-7-8-5-8-7-8-|
|-------------------------------------|
|-------------------------------------|
|-------------------------------------|
|-------------------------------------|
|-------------------------------------|


   S  S  S  S S  S S  S S  S  S  S S S S S   S  S S  S S S S S S S S S S S S S
|-10-13-12-13-7-10-8-10-8-12-10-12-5-8-7-8-|-7-10-8-10-4-7-5-7-5-8-7-8-5-8-7-8-|
|------------------------------------------|-----------------------------------|
|------------------------------------------|-----------------------------------|
|------------------------------------------|-----------------------------------|
|------------------------------------------|-----------------------------------|
|------------------------------------------|-----------------------------------|


  S S S S S  S S  S S S S S S S S S   S  S S  S  S  S  S  S S  S  S  S S  S  S  S
|-4-7-5-7-7-10-8-10-5-8-7-8-5-8-7-8-|-7-10-8-10-10-13-12-13-8-12-10-12-8-12-10-12-|
|-----------------------------------|---------------------------------------------|
|-----------------------------------|---------------------------------------------|
|-----------------------------------|---------------------------------------------|
|-----------------------------------|---------------------------------------------|
|-----------------------------------|---------------------------------------------|


   S  S  S  S S  S  S  S S  S S  S S S S S
|-10-13-12-13------------------------------|
|-------------9-12-10-12-------------------|
|------------------------7-10-9-10---------|
|----------------------------------6-9-7-9-|
|------------------------------------------|
|------------------------------------------|


  S S S S S S S S S S S S S S S S
|---------------------------------|
|---------------------------------|
|---------------------------------|
|-------------------------6-7-9-6-|
|-5-8-7-5---------5-7-8-5---------|
|---------4-5-7-4-----------------|
|
|                                 G
| W
|---------------------------------|
|---------------------------------|
|---------------------------------|
|---------------------------------|
|---------------------------------|
|---------------------------------|


 Guitar Solo
   ~~
   W
|----------------------------------------------------------------|
|----------------------------------------------------------------|
|----------------------------------------------------------------|
|----------------------------------------------------------------|
|--7-------------------------------------------------------------|
|----------------------------------------------------------------|
|
|tr II
|  |-----5-----|  |-----5-----|  |--3--|           |-----5-----|
|  S  S  S  S  S  S  S  S  S  S  T  T  T  S  S  S  S  S  S  S  S
|-------12-17p12----------------12h13p12----12-13-15-12-13-15-17-|
|----13----------13----12-13-15----------15----------------------|
|-14----------------14-------------------------------------------|
|----------------------------------------------------------------|
|----------------------------------------------------------------|
|----------------------------------------------------------------|


  Gtr II
                                                             ~~~~
   |-----5-----|  |-----5-----|  |-----5-----|
   S  S  S  S  S  S  S  S  S  S  S  S  S  S  S  T      +T   +E.
|-13-15-17-19-16-17-19-20-17-19-20-22-19-20-22-22b24==(22)-(22)-||
|---------------------------------------------------------------||
|---------------------------------------------------------------||
|---------------------------------------------------------------||
|---------------------------------------------------------------||
|---------------------------------------------------------------||


                      ~~~~~
    |-----3-----|                          |----5-----|  |----5----|  |----5----|
   +Q     Q     Q     Q.     E    E. T  T  S  S  S  S S  S S  S S  S  S S  S  S S
|-(22)r\-------19----19--------|-14h15p14p12s10-12-10s9----9h10p9-------9---------|
|--------22b24-22b24-22b24-----|------------------------12--------12-10---12-10-9-|
|------------------------------|--------------------------------------------------|
|------------------------------|--------------------------------------------------|
|------------------------------|--------------------------------------------------|
|------------------------------|--------------------------------------------------|


                                        ~~~
   |----5-----| |---5----|  |-3-|
   S S  S  S  S S S  S S S  S S S E    +Q   a
|----------------------------------------------|
|-12-8-10-12-10-8s7-10p8p7-10-8p7--------------|
|---------------------------------9b11-(9)-----|
|-------------------------------------------9/-|
|----------------------------------------------|
|----------------------------------------------|


                     T           T              T         ~
   |------6-------|  |------6-------|  |-------6--------|
   S  S  S  S  S  S  S  S  S  S  S  S  S  S  S  T  T S  S Q
|----------14p10h14-19p14p10h12-17p14p12p10h12-17p14p9h14p9----|
|-------12-----------------------------------------------------|
|----11--------------------------------------------------------|
|-12-----------------------------------------------------------|
|--------------------------------------------------------------|
|--------------------------------------------------------------|


                                                        ~~~~~~
           |--3--|  |--3--|  |--3--|    |--3--|  |-3--|
  E  S  S  S  E. E  E  E  E  E  E  E    E  E  E  E E  E H
|---------14-19p14----14-------------|-----------------------|
|------16----------15-------15-------|-----------------------|
|---16-------------------16----11-16-|----11-----------------|
|------------------------------------|-12-------12-----------|
|------------------------------------|-------14----9-14------|
|------------------------------------|------------------9----|


 ~~~~~PM--------------------------------------|
         |-3--|  |-----6------|  |-----6------|  |------6------|
  +S  S  S  S S  S  S S  S  S S  S  S S  S  S S  S  S  S S  S  S
|-------------------------------------------------------------------|
|--------------------------------------------------------9-10-12----|
|---------------------------------------------9-10-11-12------------|
|-----------------------------9-11----9-11-12-----------------------|
|-------------9-------9-10-12------12-------------------------------|
|-(9)-9-10-12---10-12-----------------------------------------------|


                            ~~~~~~~
  |--3--|
  S  S  S      +E   +E   S  S  +H
|-9-10-------------------9------------||
|------12b14==(12)-(12)r---12-(12)----||
|-------------------------------------||
|-------------------------------------||
|-------------------------------------||
|-------------------------------------||


  |----5----|  |----5----|  |----5-----| |-----5-----|
  S  S  S S S  S S S  S  S  S  S S  S  S S  S  S  S  S
|-9-12p11p9-8-11p9p8-11-14p12p11-9-12p11p9-12-16p14p12--|
|-------------------------------------------------------|
|-------------------------------------------------------|
|-------------------------------------------------------|
|-------------------------------------------------------|
|-------------------------------------------------------|


                       ~~~~~~~~~~~~~~~~~~~
   |--3--|  |--3--|
   Q  Q  Q  Q  Q  Q    Q.    E  +Q    +Q
|-11-12-14-16-16s21-|-21----21-(21)--(21)--|
|-------------------|----------------------|
|-------------------|----------------------|
|-------------------|----------------------|
|-------------------|----------------------|
|-------------------|----------------------|


   |------6-------|
   S  S  S  S  S  S  S  S  S  S  Q    E. S
|-------16-20p16---------------------------|
|----17----------17-21p17----16------------|
|-18----------------------18---------------|
|-------------------------------18--/16p13-|
|------------------------------------------|
|------------------------------------------|


   |------6-------|  |------6-------|  |------6-------|  |-----5-----|
   S  S  S  S  S  S  S  S  S  S  S  S  S  S  S  S  S  S  S  S  S  S  S
|----------------------------------------------------------------------|
|-------------------------------13-16-14-13----------------------------|
|----------13-16-14-13-13-14-16-------------16-14p13----14p13----------|
|-13-14-16-------------------------------------------16-------16-14p13-|
|----------------------------------------------------------------------|
|----------------------------------------------------------------------|


  |-----5-----|  |-----5-----|  |--------6--------|  |-----5-----|
  S  S  S  S  S  S  S  S  S  S  T  T  S  S  S  S  S  S  S  S  S  S
|------------------------------14h16p14p12----------------------------|
|---------------------13-14-16-------------16p14p12----14p13----------|
|------------13-14-16-------------------------------14-------14p13----|
|---13-14-16----------------------------------------------------------|
|-x-------------------------------------------------------------------|
|---------------------------------------------------------------------|


                                                           ~~~~~~~~~
   |------6-------|  |----5-----|  |------6-------|  |--3--|
   S  S  S  S  S  S  S  S  S  S S  S  S  S  S  S  S  S  S  S  +E
|-----------------------------------------------------------------||
|-14p13-----------------------------------------------------------||
|-------16-14p13----14p13------------13---------------------------||
|----------------16-------16-14px-16----16p14p13----14p13---------||
|------------------------------------------------16-------16-(16)-||
|-----------------------------------------------------------------||


 ~~~~~~~~~~~~~~~
   +H      +Q    S S   E
|--------------------/17b19===||
|-----------------------------||
|------------------x----------||
|-----------------------------||
|-(16)----(16)\---------------||
|----------------x------------||


                                      T     T     T     T     T     T     T        T           T
                                  |-------6-------|  |------6-------|  |-----5-----|  |----5-----|
   +Q.    E     +E   +E  E  E    +S   S  S  S  S  S  S  S  S  S  S  S  S  S  S  S  S  S  S  S  S S
|-(17)---16b19-(16)-(16)---13-|-(13)-17p13-16p13-17p13-16p13-17p13-16p13-16p10h13-16p10h13p10-13p7h|
|-----------------------------|--------------------------------------------------------------------|
|-----------------------------|--------------------------------------------------------------------|
|-----------------------------|--------------------------------------------------------------------|
|-----------------------------|--------------------------------------------------------------------|
|-----------------------------|--------------------------------------------------------------------|


                                                         T
   |-3--|                                          |------6-------|
   E E  E      +S   S      +S   +S      +E   S  S  S  S  S  S  S  S
|-10p7-10pb12r(10)-10b12==(10)r(10)b12-(10)-12----12h16-19p12h16p12--|
|----------------------------------------------15--------------------|
|--------------------------------------------------------------------|
|--------------------------------------------------------------------|
|--------------------------------------------------------------------|
|--------------------------------------------------------------------|


   T        T                                   ~~~~~
   |------6-------|  |---3----|                              |--3--|
   S  S  S  S  S  S  S  S  a  S      +S   +S   +E    Q       S  S  S
|-19p16p12-22p16p12-12-15-15s21b24==(21)-(21)-(21)r-21pb24--20-17-19-|
|--------------------------------------------------------------------|
|--------------------------------------------------------------------|
|--------------------------------------------------------------------|
|--------------------------------------------------------------------|
|--------------------------------------------------------------------|


   |----------9:8----------|  |----------9:8----------|
   S  S  S  S  S  S  S  S  S  S  S  S  S  S  S  S  S  S
|-20-19-17-22-17-19-20-19-17-19-16-17-19-17-16----------|
|----------------------------------------------18-15-17-|
|-------------------------------------------------------|
|-------------------------------------------------------|
|-------------------------------------------------------|
|-------------------------------------------------------|


   |----------9:8----------|  |----------9:8----------|
   S  S  S  S  S  S  S  S  S  S  S  S  S  S  S  S  S  S
|----------------------------------------------------12h|
|-18-17-15-17-13-15-17-15-13-15-12-13-15-13-12-13-10----|
|-------------------------------------------------------|
|-------------------------------------------------------|
|-------------------------------------------------------|
|-------------------------------------------------------|


   |------6-------|  |-------6--------|  |------6------|  |-----6------|
   S  S  S  S  S  S  S  S  S S  T  T  S  S  S  S  S S  S  S S  S  S S  S
|-13p12p10---------------------------------------------------------------|
|----------13p12p10------------12h13p12p10-----------------------10p9----|
|-------------------13p12p10s9-------------13p12p10s9---------12------12-|
|-----------------------------------------------------12-10p9------------|
|------------------------------------------------------------------------|
|------------------------------------------------------------------------|


   |-----6------|  |-----6------|
   S S  S  S S  S  S S  S  S S  S      +E   +E   +Q
|-----------------------------------------------------||
|-----------------------------------------------------||
|-10p9----10p9----------------------------------------||
|------12------12-10p9----10p9------------------------||
|----------------------12------12b14==(12)-(12)-(12)--||
|-----------------------------------------------------||
|
|                                                     Gt
|  W
|-----------------------------------------------------||
|-----------------------------------------------------||
|-----------------------------------------------------||
|-----------------------------------------------------||
|-----------------------------------------------------||
|-----------------------------------------------------||


             ~~~~
   +Q       +H.                      W
|----------------------------------|-----------------------------|
|----------------------------------|-----------------------------|
|----------------------------------|-----------------------------|
|----------------------------------|-----------------------------|
|-(12)r====(12)--------------------|-----------------------------|
|----------------------------------|-----------------------------|
|
|r I
|                                        ~
|   E  S S   S  S E S S S S  E S S   S S E +E  E S S S S S S S S
|----------------------------------|-----------------------------|
|----------------------------------|-----------------------------|
|--10-------------9---------10-----|-----9-(9)-------------------|
|---7-------------7----------7-----|-----7-(7)-----------5-3p2p0-|
|------0-0---0--0---0-0-0-0----0-0-|-0-0-------0-5-3p2p0---------|
|----------------------------------|-----------------------------|


                                    ~
   E S S S S E S S S S  E S S   S S E +E  E S S S S S S S S
|-----------------------------|-----------------------------|
|-----------------------------|-----------------------------|
|-10---------9---------10-----|-----9-(9)-------------------|
|--7---------7----------7-----|-----7-(7)-----------5-3p2p0-|
|----0-0-0-0---0-0-0-0----0-0-|-0-0-------0-5-3p2p0---------|
|-----------------------------|-----------------------------|


                                    ~
   E S S S S E S S S S  E S S   S S E +E  E S S S S S S S S
|-----------------------------|--------------------------------|
|-----------------------------|--------------------------------|
|-10---------9---------10-----|-----9-(9)----------------------|
|--7---------7----------7-----|-----7-(7)-----------5-3p2p0----|
|----0-0-0-0---0-0-0-0----0-0-|-0-0-------0-5-3p2p0------------|
|-----------------------------|--------------------------------|


                                   \5
    ~~     ~~     PM-----|         ~~~
  E Q.   E Q.     E E  E  E  a  E  Q.
|---------------|-----------------------||
|---------------|-----------------------||
|---------------|-----------------------||
|---------------|-----------------------||
|-2------5------|-8---11----11s14-------||
|---1------4----|---7----10-------13----||


 Chorus
                                    ~
   E S S S S E S S S S  E S S   S S E +E  E S S S S S S S S
|-----------------------------|------------------------------|
|-----------------------------|------------------------------|
|-10---------9---------10-----|-----9-(9)--------------------|
|--7---------7----------7-----|-----7-(7)-----------5-3p2p0--|
|----0-0-0-0---0-0-0-0----0-0-|-0-0-------0-5-3p2p0----------|
|-----------------------------|------------------------------|


                                     ~~~
   E S S S S E S S S S  E S S   S S  E  +E  E S S S S S S S S
|-----------------------------|-------------------------------|
|-----------------------------|-------------------------------|
|-10---------9---------10-----|-----[9]-(9)-------------------|
|--7---------7----------7-----|-----------------------5-3p2p0-|
|----0-0-0-0---0-0-0-0----0-0-|-0-0---------0-5-3p2p0---------|
|-----------------------------|-------------------------------|


                                    ~
   E S S S S E S S S S  E S S   S S E +E  E S S S S S S S S
|-----------------------------|--------------------------------|
|-----------------------------|--------------------------------|
|-10---------9---------10-----|-----9-(9)----------------------|
|--7---------7----------7-----|-----7-(7)-----------5-3p2p0----|
|----0-0-0-0---0-0-0-0----0-0-|-0-0-------0-5-3p2p0------------|
|-----------------------------|--------------------------------|


                                          D.S. al Coda
                                   \5
    ~~     ~~     PM-----|         ~~~          ~~~~~~
  E Q.   E Q.     E E  E  E  a  E  Q.     H     H
|---------------|-----------------------|-----------------||
|---------------|-----------------------|-----------------||
|---------------|-----------------------|-2-----2(14)-----||
|---------------|-----------------------|-2----(2)--------||
|-2------5------|-8---11----11s14-------|-0----(0)--------||
|---1------4----|---7----10-------13----|-----------------||


  &
                                    ~
   E S S S S E S S S S  E S S   S S E +E  E S S S S S S S S
|-----------------------------|-----------------------------|
|-----------------------------|-----------------------------|
|-10---------9---------10-----|-----9-(9)-------------------|
|--7---------7----------7-----|-----7-(7)-----------5-3p2p0-|
|----0-0-0-0---0-0-0-0----0-0-|-0-0-------0-5-3p2p0---------|
|-----------------------------|-----------------------------|


                                     ~~~
   E S S S S E S S S S  E S S   S S  E  +E  E S S S S S S S S
|-----------------------------|----------------------------------|
|-----------------------------|----------------------------------|
|-10---------9---------10-----|-----[9]-(9)----------------------|
|--7---------7----------7-----|-----------------------5-3p2p0----|
|----0-0-0-0---0-0-0-0----0-0-|-0-0---------0-5-3p2p0------------|
|-----------------------------|----------------------------------|


                                    ~
   E S S S S E S S S S  E S S   S S E +E  E S S S S S S S S
|-----------------------------|-----------------------------|
|-----------------------------|-----------------------------|
|-10---------9---------10-----|-----9-(9)-------------------|
|--7---------7----------7-----|-----7-(7)-----------5-3p2p0-|
|----0-0-0-0---0-0-0-0----0-0-|-0-0-------0-5-3p2p0---------|
|-----------------------------|-----------------------------|


                                   \5
    ~~     ~~     PM-----|         ~~~
  E Q.   E Q.     E E  E  E  a  E  Q.
|---------------|------------------------||
|---------------|------------------------||
|---------------|------------------------||
|---------------|------------------------||
|-2------5------|-8---11----11s14--------||
|---1------4----|---7----10-------13-----||


                                                    \6
  ~          TP   TP      ~~~
  W          H    H       H     H       S q  S S S  H
|----------:-----------:--------------:------------<3>----||
|----------:-6s===8----:--------------:------------<3>----||
|-2--------:-5s===7----:-<7>----------:------------<3>----||
|-2--------:-7s===9----:--------x\----:----------x--------||
|-0--------:-----------:--------x\----:---0----x----------||
|----------:-----------:--------x\----:------x------------||


                                   \5           \5
    ~~     ~~     PM-----|         ~~~
  E Q.   E Q.     E E  E  E  a  E  Q.     H    +E  E Q
|---------------|-----------------------|----------------*|
|---------------|-----------------------|----------------*|
|---------------|-----------------------|-2----(2)-------*|
|---------------|-----------------------|-2----(2)-------*|
|-2------5------|-8---11----11s14-------|-0----(0)-------*|
|---1------4----|---7----10-------13----|----------------*|



Duration Legend
---------------
W - whole; H - half; Q - quarter; E - 8th; S - 16th; T - 32nd; X - 64th; a - acciaccatura
+ - note tied to previous; . - note dotted; .. - note double dotted
Uncapitalized letters represent notes that are staccato (1/2 duration)
Irregular groupings are notated above the duration line
Duration letters will always appear directly above the note/fret number it represents the
duration for.  Duration letters with no fret number below them represent rests.  Multi-
bar rests are notated in the form Wxn, where n is the number of bars to rest for.  Low
melody durations appear below the staff

Tablature Legend
----------------
 h   - hammer-on
 p   - pull-off
 b   - bend
 pb  - pre-bend
 r   - bend release (if no number after the r, then release immediately)
 /\  - slide into or out of (from/to "nowhere")
 s   - legato slide
 S   - shift slide
<n> - natural harmonic
[n]  - artificial harmonic
n(n) - tapped harmonic
 ~   - vibrato
 tr  - trill
 T   - tap
 TP  - trem. picking
 PM  - palm muting
\n/  - tremolo bar dip; n = amount to dip
 \n  - tremolo bar down
 n/  - tremolo bar up
/n\  - tremolo bar inverted dip
 =   - hold bend; also acts as connecting device for hammers/pulls
 <> - volume swell (louder/softer)
 x   - on rhythm slash represents muted slash
 o   - on rhythm slash represents single note slash

Misc Legend
-----------
 |  - bar
||  - double bar
||o - repeat start
o|| - repeat end
*|  - double bar (ending)
 :  - bar (freetime)
 $  - Segno
 &  - Coda
Tempo markers - <E/E./Q/Q./H/H.> = BPM(8/16=s8/s16), where s8 = swing 8ths, s16 = swing 16ths


** Generated using Power Tab Editor by Brad Larsen: The Official Power Tab Web Site