#----------------------------------PLEASE NOTE---------------------------------#
#This file is the author's own work and represents their interpretation of the #
#song. You may only use this file for private study, scholarship, or research. #
#------------------------------------------------------------------------------#

BLACK STAR
As recorded by Yngwie Malmsteen

Transcribed by Joe Lopez

Music by Yngwie Malmsteen


Gtr I (E A D G B E) - 'Gtr. 1'
Gtr II (E A D G B E) - 'Gtr. 2'
Gtr III (E A D G B E) - 'Gtr. 3'
Gtr IV (E A D G B E) - 'Gtr. 4'
Gtr V (E A D G B E) - 'Gtr. 5'

  Q=76
 3/4
  Gtr III
            ~~          ~          ~~          ~~
  Q  H      Q.   E Q    H    E E   Q.   E Q    H.
|----7----|-----------|----------|------2-3--|-4-----|
|----7----|-8----7-5--|-4----2-4-|-5---------|-5-----|
|----8----|-----------|----------|-----------|-4-----|
|---------|-----------|-4--------|-----------|-------|
|----9----|-7---------|------0---|-----------|-------|
|---------|-----------|----------|-3---------|-4-----|


  ~          ~~~~~~~
     |-3-|
  Q  S S S E Q    Q  E E Q    S S S S E E E E
|-5-------------|-6---------|-------7---------|
|-5-------------|-7---------|-----8---7---5---|
|-7--5h7p5s4-5--|-6---------|---9-----8---6---|
|---------------|-----------|-----------------|
|-0-------------|-----------|-----------------|
|---------------|-6--6-7-9--|-7---------------|


  E E  Q    Q       Q     Q     Q
|----------<7>--|-------<12>---------|
|-7-------------|-------------<12>---|
|-8-------------|--------------------|
|---------------|--------------------|
|---------------|--------------------|
|-----<7>-------|-<12>---------------|


                                  4/4
   Q    Q    Q       Q     H       W          H    E E S T T T T T  T
|----------------|-------<12>----|----------|--------------------7-12\-|
|------<7>-------|-<12>----------|----------|------------------8-------|
|-<5>-------<7>--|---------------|----------|----------------9---------|
|----------------|---------------|----------|--------------9-----------|
|----------------|---------------|----------|--------------------------|
|----------------|---------------|----------|--------------------------|


    ~~~~~~~~~                      ~~~~~~~~~~~~~
                |-3--|    |--3--|
  E Q.   +Q   E S S  S    S  S  S  E  +Q    +Q   E  T  T  T  T
|-8s7----(7)-----------|-------12-14-(14)--(14)-------------19-|
|----------------------|----12---------------------------17----|
|----------------------|-12---------------------------16-------|
|-------------------14-|---------------------------17----------|
|----------------------|---------------------------------------|
|----------------------|---------------------------------------|


                              ~~~~~          ~~~
              |---3---|              |-3--|
   +S   T  T  S  +S   S  +S   S    E S S  S  Q.
|-(19)-17-15s14-(14)-15-(15)-14b15----------------|
|----------------------------------------17s15----|
|-------------------------------------------------|
|-------------------------------------------------|
|-------------------------------------------------|
|-------------------------------------------------|


    ~~~~
          |--3--|
   +S. S  S  S  S  T  T  T  T  T  T  T  T  T  T  X  X   X    X    +Q      +S     +T
|----------------------------------------------------------<12>-(<12>)--(<12>)-(<12>)-|
|-(15)---------12-16-15-13-12-15-13-12----------------<12>----------------------------|
|-----------12-------------------------14-12-------12---------------------------------|
|--------14----------------------------------16-14------------------------------------|
|-------------------------------------------------------------------------------------|
|-------------------------------------------------------------------------------------|


   E. T T Q.   E S  X X X  X  +E
|---------------------------------|
|-----0h1p0---------------12-(12)-|
|-<7>-------------------9---------|
|---------------------9-----------|
|------------------10-------------|
|---------------------------------|


  Gtr IV
                   |----3----|    |----3----|    |----3----|    |----3----|
   W               E    E    E    E    E    E    E    E    E    E    E    E
|--------------|-----------<14>-<12>-----------------------------------------|
|--------------|---------------------<15>-<17>-<12>--------------------------|
|--------------|------------------------------------<12>-<11>----------------|
|--------------|----------------------------------------------<14>-----------|
|--------------|---------------------------------------------------<14>-<12>-|
|--------------|-------------------------------------------------------------|
|
| Gtr III
|      ~~
|                  |----3----|    |----3----|    |----3----|    |----3----|
|  Q   H    Q      E    E    E    E    E    E    E    E    E    E    E    E
|--------------|-<14>-<12>---------------------------------------------------|
|-12s=15-------|-----------<15>-<17>-<12>------------------------------------|
|--------------|--------------------------<12>-<11>--------------------------|
|--------------|------------------------------------<14>---------------------|
|--------------|-----------------------------------------<14>-<12>-<10>------|
|--------------|--------------------------------------------------------<14>-|


    |----3----|    |----3----|    |----3----|    |----3----|
    E    E    E    E    E    E    E    E    E    E    E    E
|--------------------------------------------------------<15>--|
|-------------------------------<12>-<13>-<12>-<17>-<16>-------|
|--------------------------<12>--------------------------------|
|---------------------<14>-------------------------------------|
|-<10>------<10>-<14>------------------------------------------|
|------<14>----------------------------------------------------|
|
|   |----3----|    |----3----|    |----3----|    |----3----|
|   E    E    E    E    E    E    E    E    E    E    E    E
|----------------------------------------------<15>-<14>-<17>--|
|---------------------<12>-<13>-<12>-<17>-<16>-----------------|
|----------------<12>------------------------------------------|
|-----------<14>-----------------------------------------------|
|-<10>-<14>----------------------------------------------------|
|--------------------------------------------------------------|


    |----3----|    |----3----|    |----3----|    |----3----|
    E    E    E    E    E    E    E    E    E    E    E    E
|-<14>-<17>-<15>-<19>-<20>-<19>-<20>-<17>-<20>-<15>-<20>-<14>-|
|-------------------------------------------------------------|
|-------------------------------------------------------------|
|-------------------------------------------------------------|
|-------------------------------------------------------------|
|-------------------------------------------------------------|
|
|   |----3----|    |----3----|    |----3----|    |----3----|
|   E    E    E    E    E    E    E    E    E    E    E    E
|-<15>-<19>-<20>-<19>-<20>-<17>-<20>-<15>-<20>-<14>-<15>------|
|--------------------------------------------------------<16>-|
|-------------------------------------------------------------|
|-------------------------------------------------------------|
|-------------------------------------------------------------|
|-------------------------------------------------------------|


                                                   Gtr I
                                                   ~
    |----3----|    |----3----|
    E    E    E    E    E    E   H                 W
|-<15>---------------------<15>------------------|------|
|------<16>-<17>------<17>-----------------------|------|
|----------------<16>----------------------------|------|
|------------------------------------------------|-2----|
|------------------------------------------------|------|
|------------------------------------------------|------|
|
|                                                  Gtr II
|                                ~~~~~~~~~~~~~~~~~~~~
|   |----3----|    |----3----|
|   E    E    E    E    E    E   Q       +S   E.   W
|----------------<15>-<19>------21b22===(21)r----|------|
|-<17>------<17>-----------<17>------------------|------|
|------<16>--------------------------------------|------|
|------------------------------------------------|-5----|
|------------------------------------------------|------|
|---------------------------------------------0--|------|


              ~~~~~~~~~~~~~~~~~~~~~~~~~~~~~
  H      +Q   Q     W           +H.      Q
|----------------|-----------|--------------|
|----------------|-----------|--------------|
|-4b5r===(4)--4--|--9--------|--(9)---------|
|----------------|-----------|--------------|
|----------------|-----------|-----------2--|
|----------------|-----------|--------------|
|
|             ~~~~~~~~~~~~~~~~~~~~~~~~~~~~~
| H      +Q   Q     W           +H.      Q
|----------------|-----------|--------------|
|----------------|-----------|--------------|
|-7b8r===(7)--7--|-12--------|-(12)---------|
|----------------|-----------|--------------|
|----------------|-----------|-----------2--|
|----------------|-----------|--------------|


              ~~                    ~~
                  |--3--|  |--3--|
   E     +E   Q   S  S  S  S  S  S  Q
|----------------------14-15-14--------|
|-17b19r(17)-17--16-17----------16-17--|
|--------------------------------------|
|--------------------------------------|
|--------------------------------------|
|--------------------------------------|
|
|             ~~                    ~~
|                 |--3--|  |--3--|
|  E     +E   Q   S  S  S  S  S  S  Q
|----------------------17-19-17--------|
|-20b22r(20)-20--19-20----------19-20--|
|--------------------------------------|
|--------------------------------------|
|--------------------------------------|
|--------------------------------------|


              ~~                                      ~~
   E     +E   Q   T  T  T  T  T  T  T  T  T  T  T  T  E
|-19b20r(19)-19--14-17-15-14----15-14----------14-------|
|----------------------------17-------17-16-17----16-17-|
|-------------------------------------------------------|
|-------------------------------------------------------|
|-------------------------------------------------------|
|-------------------------------------------------------|
|
|             ~~                                      ~~
|  E     +E   Q   T  T  T  T  T  T  T  T  T  T  T  T  E
|-20b22r(20)-20--17-20-19-17----19-17----------17-------|
|----------------------------20-------20-19-20----19-20-|
|-------------------------------------------------------|
|-------------------------------------------------------|
|-------------------------------------------------------|
|-------------------------------------------------------|


                 ~~                    ~~
                     |--3--|  |--3--|
   E     +S   S  Q   S  S  S  S  S  S  Q
|-------------------------14-15-14---------|
|-17b19r(17)-17-17--16-17----------16-17---|
|------------------------------------------|
|------------------------------------------|
|------------------------------------------|
|------------------------------------------|
|
|                ~~                    ~~
|                    |--3--|  |--3--|
|  E     +E      Q   S  S  S  S  S  S  Q
|-------------------------17-19-17---------|
|-20b22r(20)----20--19-20----------19-20---|
|------------------------------------------|
|------------------------------------------|
|------------------------------------------|
|------------------------------------------|


              ~~                                      ~~~
   E     +E   Q   T  T  T  T  T  T  T  T  T  T  T  T  E
|-19b20r(19)-19--14-17-15-14----15-14----------14--------|
|----------------------------17-------17-16-17----16-17/-|
|--------------------------------------------------------|
|--------------------------------------------------------|
|--------------------------------------------------------|
|--------------------------------------------------------|
|
|             ~~                                      ~~~
|  E     +E   Q   T  T  T  T  T  T  T  T  T  T  T  T  E
|-20b22r(20)-20--17-20-19-17----19-17----------17--------|
|----------------------------20-------20-19-20----19-20--|
|--------------------------------------------------------|
|--------------------------------------------------------|
|--------------------------------------------------------|
|--------------------------------------------------------|


      ~~    ~~    ~~~~~      ~~                     ~~
   E  E  E  E  E  E  E  E    E  E  E  E  E     +E   Q
|-19-20-17-20-15-20----20-|-19-20-17-19-20b24r(20)-19--|
|-------------------19----|----------------------------|
|-------------------------|----------------------------|
|-------------------------|----------------------------|
|-------------------------|----------------------------|
|-------------------------|----------------------------|
|
|     ~~    ~~    ~~~~~      ~~                     ~~
|  E  E  E  E  E  E  E  E    E  E  E  E  E     +E   Q
|-19-20-17-20-15-20----20-|-19-20-17-19-20b24r(20)-19--|
|-------------------19----|----------------------------|
|-------------------------|----------------------------|
|-------------------------|----------------------------|
|-------------------------|----------------------------|
|-------------------------|----------------------------|


              ~~                    ~~
                  |--3--|  |--3--|
   E     +E   Q   S  S  S  S  S  S  Q
|----------------------14-15-14--------|
|-17b19r(17)-17--16-17----------16-17--|
|--------------------------------------|
|--------------------------------------|
|--------------------------------------|
|--------------------------------------|
|
|             ~~                    ~~
|                 |--3--|  |--3--|
|  E     +E   Q   S  S  S  S  S  S  Q
|----------------------17-19-17--------|
|-20b22r(20)-20--19-20----------19-20--|
|--------------------------------------|
|--------------------------------------|
|--------------------------------------|
|--------------------------------------|


              ~~                                      ~~
   E     +E   Q   T  T  T  T  T  T  T  T  T  T  T  T  E
|-19b20r(19)-19--14-17-15-14----15-14----------14-------|
|----------------------------17-------17-16-17----16-17-|
|-------------------------------------------------------|
|-------------------------------------------------------|
|-------------------------------------------------------|
|-------------------------------------------------------|
|
|             ~~                                      ~~
|  E     +E   Q   T  T  T  T  T  T  T  T  T  T  T  T  E
|-20b22r(20)-20--17-20-19-17----19-17----------17-------|
|----------------------------20-------20-19-20----19-20-|
|-------------------------------------------------------|
|-------------------------------------------------------|
|-------------------------------------------------------|
|-------------------------------------------------------|


                                                ~~~~~~~~~~~~
   T  T  T  T  T  T  T  T  T  T  X  X  X  X  X  X  +S.  +Q    E     +E
|--7h=8p=7--5-----------------------------------------------------------|
|--------------8--7--5----------------------------------------7---------|
|-----------------------8--7--5--4----------------------------9b11r=(9)-|
|-----------------------------------7--5--4-----------------------------|
|--------------------------------------------7--6--(6)--(6)-------------|
|-----------------------------------------------------------------------|
|
|                                               ~~~~~~~~~~~~
|  T  T  T  T  T  T  T  T  T  T  X  X  X  X  X  X  +S.  +Q    E     +E
|-15h17p15-14-----------------------------------------------------------|
|-------------17-15-14---------------------------------------10b12r(10)-|
|----------------------17-16-14----14------------------------12---------|
|-------------------------------17----17-16-14-13-(13)-(13)-------------|
|-----------------------------------------------------------------------|
|-----------------------------------------------------------------------|


   ~~             ~~~~~~~
   Q   E     +E   E  +S.  T  T  T  T  T  T  T  T  T
|---------------------------------11-12-14-12-11----|
|-----10b12r(10)---------10-12-13----------------13-|
|--8--12---------11-(11)----------------------------|
|---------------------------------------------------|
|---------------------------------------------------|
|---------------------------------------------------|
|
|  ~~             ~~~~~~~
|  Q   E     +E   E  +S.  T  T  T  T  T  T  T  T  T
|---------------------------------11-12-14-12-11----|
|-----12b13r(12)-10-(10)-10-12-13----------------13-|
|-11------------------------------------------------|
|---------------------------------------------------|
|---------------------------------------------------|
|---------------------------------------------------|


   T  T  T  T T T  T T T  T T T S  E.  +Q.
|---------------------------------------------|
|-12p10---------------------------<5>-(<5>)---|
|-------12-11-9-8-----------------------------|
|-----------------10-9-7----------------------|
|------------------------10-9-7-6-------------|
|---------------------------------------------|
|
|                                  ~~~~~~~~~
|  T  T  T  T T T  T T T  T T T S  E.  +Q.
|---------------------------------------------|
|-12p10----------------------------5---(5)----|
|-------12-11-9-8-----------------------------|
|-----------------10-9-7----------------------|
|------------------------10-9-7-6-------------|
|---------------------------------------------|


                                                                                                 ~
   T  T  T  T  T  T  T  T  X  X  X  X  X  X  X  T  S  T  T  T  T  T  T  T  T  T  T  T  T  T T  T T
|-20p17----20-17p14----17-14p11----------11-11h14p11s20p17-------17p14-------14p11-------11p8------|
|-------19----------16----------13-10-13-------------------19-16-------16-13-------13-10------10p7-|
|--------------------------------------------------------------------------------------------------|
|--------------------------------------------------------------------------------------------------|
|--------------------------------------------------------------------------------------------------|
|--------------------------------------------------------------------------------------------------|
|
|  T  T  T  T  T  T  T  T  X  X  X  X  X  X  X  T  S  T  T  T  T  T  T  T  T  T  T  T  T  T T  T T
|-17p14----17-14p11----14-11p=8-----------8--x-11p=8s17p14-------14p11-------11p=8--------8p5------|
|-------16----------13----------10--7-10-------------------16-13-------13-10-------10--7-------7-4-|
|--------------------------------------------------------------------------------------------------|
|--------------------------------------------------------------------------------------------------|
|--------------------------------------------------------------------------------------------------|
|--------------------------------------------------------------------------------------------------|


              ~~                    ~~
                  |--3--|  |--3--|
   E     +E   Q   S  S  S  S  S  S  Q
|----------------------14-15-14--------|
|-17b19r(17)-17--16-17----------16-17--|
|--------------------------------------|
|--------------------------------------|
|--------------------------------------|
|--------------------------------------|
|
|             ~~                    ~~
|                 |--3--|  |--3--|
|  E     +E   Q   S  S  S  S  S  S  Q
|----------------------17-19-17--------|
|-20b22r(20)-20--19-20----------19-20--|
|--------------------------------------|
|--------------------------------------|
|--------------------------------------|
|--------------------------------------|


              ~~                                      ~~
   E     +E   Q   T  T  T  T  T  T  T  T  T  T  T  T  E
|-19b20r(19)-19--14-17-15-14----15-14----------14-------|
|----------------------------17-------17-16-17----16-17-|
|-------------------------------------------------------|
|-------------------------------------------------------|
|-------------------------------------------------------|
|-------------------------------------------------------|
|
|             ~~                                      ~~
|  E     +E   Q   T  T  T  T  T  T  T  T  T  T  T  T  E
|-20b22r(20)-20--17-20-19-17----19-17----------17-------|
|----------------------------20-------20-19-20----19-20-|
|-------------------------------------------------------|
|-------------------------------------------------------|
|-------------------------------------------------------|
|-------------------------------------------------------|


                 ~~                    ~~
                     |--3--|  |--3--|
   E     +S   S  Q   S  S  S  S  S  S  Q
|-------------------------14-15-14--------|
|-17b19r(17)-17-17--16-17----------16-17--|
|-----------------------------------------|
|-----------------------------------------|
|-----------------------------------------|
|-----------------------------------------|
|
|                ~~                    ~~
|                    |--3--|  |--3--|
|  E     +E      Q   S  S  S  S  S  S  Q
|-------------------------17-19-17--------|
|-20b22r(20)----20--19-20----------19-20--|
|-----------------------------------------|
|-----------------------------------------|
|-----------------------------------------|
|-----------------------------------------|


              ~~                                      ~~~      ~~    ~~    ~~~~~
   E     +E   Q   T  T  T  T  T  T  T  T  T  T  T  T  E     E  E  E  E  E  E  E  E
|-19b20r(19)-19--14-17-15-14----15-14----------14--------|-19-20-17-20-15-20----20--|
|----------------------------17-------17-16-17----16-17/-|-------------------19-----|
|--------------------------------------------------------|--------------------------|
|--------------------------------------------------------|--------------------------|
|--------------------------------------------------------|--------------------------|
|--------------------------------------------------------|--------------------------|
|
|             ~~                                      ~~~      ~~    ~~    ~~~~~
|  E     +E   Q   T  T  T  T  T  T  T  T  T  T  T  T  E     E  E  E  E  E  E  E  E
|-20b22r(20)-20--17-20-19-17----19-17----------17--------|-19-20-17-20-15-20----20--|
|----------------------------20-------20-19-20----19-20--|-------------------19-----|
|--------------------------------------------------------|--------------------------|
|--------------------------------------------------------|--------------------------|
|--------------------------------------------------------|--------------------------|
|--------------------------------------------------------|--------------------------|


   ~~                     ~~               ~~                    ~~
                                               |--3--|  |--3--|
   E  E  E  E  E     +E   Q     E     +E   Q   S  S  S  S  S  S  Q
|-19-20-17-19-20b24r(20)-19--|----------------------14-15-14--------|
|----------------------------|-17b19r(17)-17--16-17----------16-17--|
|----------------------------|--------------------------------------|
|----------------------------|--------------------------------------|
|----------------------------|--------------------------------------|
|----------------------------|--------------------------------------|
|
|  ~~                     ~~               ~~                    ~~
|                                              |--3--|  |--3--|
|  E  E  E  E  E     +E   Q     E     +E   Q   S  S  S  S  S  S  Q
|-19-20-17-19-20b24r(20)-19--|----------------------17-19-17--------|
|----------------------------|-20b22r(20)-20--19-20----------19-20--|
|----------------------------|--------------------------------------|
|----------------------------|--------------------------------------|
|----------------------------|--------------------------------------|
|----------------------------|--------------------------------------|


              ~~                                      ~~
   E     +E   Q   T  T  T  T  T  T  T  T  T  T  T  T  E
|-19b20r(19)-19--14-17-15-14----15-14----------14-------|
|----------------------------17-------17-16-17----16-17-|
|-------------------------------------------------------|
|-------------------------------------------------------|
|-------------------------------------------------------|
|-------------------------------------------------------|
|
|             ~~                                      ~~
|  E     +E   Q   T  T  T  T  T  T  T  T  T  T  T  T  E
|-20b22r(20)-20--17-20-19-17----19-17----------17-------|
|----------------------------20-------20-19-20----19-20-|
|-------------------------------------------------------|
|-------------------------------------------------------|
|-------------------------------------------------------|
|-------------------------------------------------------|


                                                ~~~~~~~~~~~~
   T  T  T  T  T  T  T  T  T  T  X  X  X  X  X  X  +S.  +Q    E     +E
|--7h=8p=7--5-----------------------------------------------------------|
|--------------8--7--5----------------------------------------7---------|
|-----------------------8--7--5--4----------------------------9b11r=(9)-|
|-----------------------------------7--5--4-----------------------------|
|--------------------------------------------7--6--(6)--(6)-------------|
|-----------------------------------------------------------------------|
|
|                                               ~~~~~~~~~~~~
|  T  T  T  T  T  T  T  T  T  T  X  X  X  X  X  X  +S.  +Q    E     +E
|-15h17p15-14-----------------------------------------------------------|
|-------------17-15-14---------------------------------------10b12r(10)-|
|----------------------17-16-14----14------------------------12---------|
|-------------------------------17----17-16-14-13-(13)-(13)-------------|
|-----------------------------------------------------------------------|
|-----------------------------------------------------------------------|


   ~~             ~~
   Q   E     +E   H
|----------------------|
|-----10b12r(10)-------|
|--8--12---------11----|
|----------------------|
|----------------------|
|----------------------|
|
|  ~~             ~~
|  Q   E     +E   H
|----------------------|
|-----12b13r(12)-10----|
|-11-------------------|
|----------------------|
|----------------------|
|----------------------|


                              ~~~~~                                 ~~~~~~
   |--3--|  |--3--|  |--3--|        |--3--|  |--3--|  |--3--|
   S  S  S  S  S  S  S  S  S  E     S  S  S  S  S  S  S  S  S       E
|-------------------------14-17b19-------14-17-14----14-17-19------20b24-|
|-------13-16-13----13-16----------13-16----------16---------------------|
|----14----------14------------------------------------------------------|
|-16---------------------------------------------------------------------|
|------------------------------------------------------------------------|
|------------------------------------------------------------------------|
|
|  |--3--|  |--3--|  |--3--|        |--3--|  |--3--|  |--3--|
|  S  S  S  S  S  S  S  S  S  E     S  S  S  S  S  S  S  S  S      +E
|-------------------------11-14b15-------11-14-11----11-14s17b20==(17)r--|
|-------10-13-10----10-13----------10-13----------13---------------------|
|----11----------11------------------------------------------------------|
|-13---------------------------------------------------------------------|
|------------------------------------------------------------------------|
|------------------------------------------------------------------------|


 ~~~~~
   H.          T  T  T  T  T  T  T  T
|-20----------20-19-17-15-19-17-15----|
|----------------------------------19-|
|-------------------------------------|
|-------------------------------------|
|-------------------------------------|
|-------------------------------------|
|
|  ~~~~~~~~~
|  Q.    Q.    T  T  T  T  T  T  T  T
|-20----20----17-15-14----15-14-------|
|----------------------17--8----17-15-|
|-------------------------------------|
|-------------------------------------|
|-------------------------------------|
|-------------------------------------|


   ~~~~~
   W
|------------------------------|
|-17---------------------------|
|------------------------------|
|------------------------------|
|------------------------------|
|------------------------------|
|
|                ~~~~~~~~~~~~~~~
|  E.   S  S  S  E      +H
|---------14-15----------------|
|-17b19-x-------17b19==(17)----|
|------------------------------|
|------------------------------|
|------------------------------|
|------------------------------|


    W
|----------------------------------------------------------|
|----------------------------------------------------------|
|----------------------------------------------------------|
|----------------------------------------------------------|
|----------------------------------------------------------|
|----------------------------------------------------------|
|
|~~~~~~~
|  +E    S  S  S  S  S  S  S  S  S  S  T  T  T  T  T  T  S
|-------14-15-17-15-14----14-15-17s19-15-------------------|
|-(17)r----------------17----------------17----17----------|
|-------------------------------------------16----16----16-|
|----------------------------------------------------17----|
|----------------------------------------------------------|
|----------------------------------------------------------|


  Gtr II
   ~~                               ~~
   E  T  T  T  T  T  T  T  T  T  T  E  S     +E   +S   T  T  T  T  T  T
|-19-20-19-17-15-19-17-15-14-15-17-15-20b24r(20)-(20)-19-20-17-20-15-20-|
|-----------------------------------------------------------------------|
|-----------------------------------------------------------------------|
|-----------------------------------------------------------------------|
|-----------------------------------------------------------------------|
|-----------------------------------------------------------------------|


   T  T  T  T  T  T  T  T  T  T  T  T  T  T  T  T  T  T  T  T  X  X  X  X  X  X  X  X  X  X  X  X  X  X  X  X
|-14-20-19-20-17-20-15-20-14-20-19-20-17-20-15-20-14-20----20-------15-19-17-15----17-15-------15---------------|
|-------------------------------------------------------17----16-19-------------19-------19-17----19-17-18-19p==|
|--------------------------------------------------------x------------------------------------------------------|
|---------------------------------------------------------------------------------------------------------------|
|---------------------------------------------------------------------------------------------------------------|
|---------------------------------------------------------------------------------------------------------------|


   X  X  X  X  X  X  X  X  X  X  X  X  X  X  X  X  X  X  X  X  X  E     +T   S T +T  T X X X  X X  X  X  X  X  T  T  T  T
|-------------15-14-12-11----------14-12-11------------------------------------------------7-12-8-16-12-------20-15--------|
|-17-16-13-12-------------13-12-10----------13-12-11-12-11-------------------------------8--------------------------17-----|
|----------------------------------------------------------12-11-12b16r(12)-12s8-(8)---9----------------16-12----------16--|
|--------------------------------------------------------------------------------------------------------------------------|
|--------------------------------------------------------------------------------------------------------------------------|
|--------------------------------------------------------------------------------------------------------------------------|


   ~~~~~~~~~~~~~~~~~~~
                  |---3---|
   Q       +Q    +E    E  E  X  X  X  X  X  X  X  X  X  X  X  X  X
|-20b22===(20)--(20)r-19-20-19-20-19-17-15-19-17-15-14-15-17-15-19-|
|------------------------------------------------------------------|
|------------------------------------------------------------------|
|------------------------------------------------------------------|
|------------------------------------------------------------------|
|------------------------------------------------------------------|


                                                      ~~~~~~~~~~~~       ~~~~~~~~~~~~
   X  X  X  X  X  X  X  X  X  X  X  X  X  X  X  X  X  X  +E   +S   S  S  S  +S   +E   T  T
|-14----15-14-------14-12-------------------------------------------------------------------|
|----17-------17-16-------16-12-17-15-13p12----13-12----------------------------------------|
|-------------------------------------------14-------21-(21)-(21)-21p12-21-(21)-(21)-15p14--|
|-------------------------------------------------------------------------------------------|
|-------------------------------------------------------------------------------------------|
|-------------------------------------------------------------------------------------------|


                ~~~~~~~~~~~~     ~~~~~          ~         ~~
   +S   +S   S  S      +S    T T S    +S  S T T E T T T T E
|------------------------------------------------------------|
|------------------------------------------------------------|
|-(14)-(14)-12s11b12==(11)r-11p9-8b11r(8)-5-9p5-4-5p4--------|
|-----------------------------------------------------7-5-4\-|
|------------------------------------------------------------|
|------------------------------------------------------------|


  Gtr V
   ~~~~~~~~~~~~~~~~~~~~~~~~~~~~~~~~~~~~~~~~~~~~~~~~~~~~~~~~~~~~~~~~~~~~~~~~~~~~~~~~~~~~~~~~~~~~~
   Q                            Q                                 Q                    Q
|----------------------------------------------------------------------------------------------|
|----------------------------------------------------------------------------------------------|
|--2----------------------------4---------------------------------5--------------------9-------|
|-10---------------------------12--------------------------------14-------------------19-------|
|----------------------------------------------------------------------------------------------|
|----------------------------------------------------------------------------------------------|
|
| Gtr II
|  S  S  X  X X  X  X  X  X  X  X  X X  X  X  X X  X  X  X  S  T  T  T  T  T T  E.        +S
|---------------------12-17p12--------------------------12-17p20-12h17p12-13---12b13=====(12)r-|
|------------------13----------12--------------------13----------------------------------------|
|-------------9-14----------------14-9----------9-14-------------------------------------------|
|----------10--------------------------10----10------------------------------------------------|
|----12-12--------------------------------12---------------------------------------------------|
|----------------------------------------------------------------------------------------------|


 ~~~~~~~~~~~~~~~~
   Q   Q   Q   Q
|-----------------|
|-13--12--13--15--|
|-14--19--21--22--|
|-----------------|
|-----------------|
|-----------------|
|
|  ~~
|  W
|-----------------|
|-15--------------|
|-----------------|
|-----------------|
|-----------------|
|-----------------|


   ~~~~~~~~~~
   Q   Q   Q   E     E
|-15--17--19--19b20-19b20-|
|-17--18--20--------------|
|-------------------------|
|-------------------------|
|-------------------------|
|-------------------------|
|
| Gtr I
|  Q   Q   Q   E     E
|-------------------------|
|-------------20b22-20b22-|
|-------------------------|
|-------------------------|
|-------------------------|
|-------------------------|


  Gtr II
   ~~~~~~~~~~~~~~~~~~                                                    ~~
   Q       +S   +E    X  X  X  T  T  T  T  T  T  T  T  T  T  T  T  T  T  S
|-20b24===(20)-(20)r-20-19-17-16--------------------------------------------|
|--------------------------------18-17-15-----------------------------------|
|-----------------------------------------17-16-14-12-----------------------|
|-----------------------------------------------------15-14-12--------------|
|--------------------------------------------------------------15-14-12-11--|
|---------------------------------------------------------------------------|
|
|  W
|---------------------------------------------------------------------------|
|---------------------------------------------------------------------------|
|---------------------------------------------------------------------------|
|---------------------------------------------------------------------------|
|---------------------------------------------------------------------------|
|---------------------------------------------------------------------------|


  Gtr I
                                                ~~~~~~~~~~~~
   T  T  T  T  T  T  T  T  T  T  X  X  X  X  X  X  +S.  +Q    E     +E
|--7h=8p=7--5-----------------------------------------------------------|
|--------------8--7--5----------------------------------------7---------|
|-----------------------8--7--5--4----------------------------9b11r=(9)-|
|-----------------------------------7--5--4-----------------------------|
|--------------------------------------------7--6--(6)--(6)-------------|
|-----------------------------------------------------------------------|
|
| Gtr II
|                                               ~~~~~~~~~~~~
|  T  T  T  T  T  T  T  T  T  T  X  X  X  X  X  X  +S.  +Q    E     +E
|-15h17p15-14-----------------------------------------------------------|
|-------------17-15-14---------------------------------------10b12r(10)-|
|----------------------17-16-14----14------------------------12---------|
|-------------------------------17----17-16-14-13-(13)-(13)-------------|
|-----------------------------------------------------------------------|
|-----------------------------------------------------------------------|


   ~~             ~~~~~~~
   Q   E     +E   E  +S.  T  T  T  T  T  T  T  T  T
|---------------------------------11-12-14-12-11----|
|-----10b12r(10)---------10-12-13----------------13-|
|--8--12---------11-(11)----------------------------|
|---------------------------------------------------|
|---------------------------------------------------|
|---------------------------------------------------|
|
|  ~~             ~~~~~~~
|  Q   E     +E   E  +S.  T  T  T  T  T  T  T  T  T
|---------------------------------11-12-14-12-11----|
|-----12b13r(12)-10-(10)-10-12-13----------------13-|
|-11------------------------------------------------|
|---------------------------------------------------|
|---------------------------------------------------|
|---------------------------------------------------|


   T  T  T  T T T  T T T  T T T S  E.  +Q.
|---------------------------------------------|
|-12p10---------------------------<5>-(<5>)---|
|-------12-11-9-8-----------------------------|
|-----------------10-9-7----------------------|
|------------------------10-9-7-6-------------|
|---------------------------------------------|
|
|                                  ~~~~~~~~~
|  T  T  T  T T T  T T T  T T T S  E.  +Q.
|---------------------------------------------|
|-12p10----------------------------5---(5)----|
|-------12-11-9-8-----------------------------|
|-----------------10-9-7----------------------|
|------------------------10-9-7-6-------------|
|---------------------------------------------|


                                                                                                 ~
   T  T  T  T  T  T  T  T  X  X  X  X  X  X  X  T  S  T  T  T  T  T  T  T  T  T  T  T  T  T T  T T
|-20p17----20-17p14----17-14p11----------11-11h14p11s20p17-------17p14-------14p11-------11p8------|
|-------19----------16----------13-10-13-------------------19-16-------16-13-------13-10------10p7-|
|--------------------------------------------------------------------------------------------------|
|--------------------------------------------------------------------------------------------------|
|--------------------------------------------------------------------------------------------------|
|--------------------------------------------------------------------------------------------------|
|
|  T  T  T  T  T  T  T  T  X  X  X  X  X  X  X  T  S  T  T  T  T  T  T  T  T  T  T  T  T  T T  T T
|-17p14----17-14p11----14-11p=8-----------8--x-11p=8s17p14-------14p11-------11p=8--------8p5------|
|-------16----------13----------10--7-10-------------------16-13-------13-10-------10--7-------7-4-|
|--------------------------------------------------------------------------------------------------|
|--------------------------------------------------------------------------------------------------|
|--------------------------------------------------------------------------------------------------|
|--------------------------------------------------------------------------------------------------|


              ~~                    ~~
                  |--3--|  |--3--|
   E     +E   Q   S  S  S  S  S  S  Q
|----------------------14-15-14--------|
|-17b19r(17)-17--16-17----------16-17--|
|--------------------------------------|
|--------------------------------------|
|--------------------------------------|
|--------------------------------------|
|
|             ~~                    ~~
|                 |--3--|  |--3--|
|  E     +E   Q   S  S  S  S  S  S  Q
|----------------------17-19-17--------|
|-20b22r(20)-20--19-20----------19-20--|
|--------------------------------------|
|--------------------------------------|
|--------------------------------------|
|--------------------------------------|


              ~~                                      ~~
   E     +E   Q   T  T  T  T  T  T  T  T  T  T  T  T  E
|-19b20r(19)-19--14-17-15-14----15-14----------14-------|
|----------------------------17-------17-16-17----16-17-|
|-------------------------------------------------------|
|-------------------------------------------------------|
|-------------------------------------------------------|
|-------------------------------------------------------|
|
|             ~~                                      ~~
|  E     +E   Q   T  T  T  T  T  T  T  T  T  T  T  T  E
|-20b22r(20)-20--17-20-19-17----19-17----------17-------|
|----------------------------20-------20-19-20----19-20-|
|-------------------------------------------------------|
|-------------------------------------------------------|
|-------------------------------------------------------|
|-------------------------------------------------------|


                 ~~                    ~~
                     |--3--|  |--3--|
   E     +S   S  Q   S  S  S  S  S  S  Q
|-------------------------14-15-14--------|
|-17b19r(17)-17-17--16-17----------16-17--|
|-----------------------------------------|
|-----------------------------------------|
|-----------------------------------------|
|-----------------------------------------|
|
|                ~~                    ~~
|                    |--3--|  |--3--|
|  E     +E      Q   S  S  S  S  S  S  Q
|-------------------------17-19-17--------|
|-20b22r(20)----20--19-20----------19-20--|
|-----------------------------------------|
|-----------------------------------------|
|-----------------------------------------|
|-----------------------------------------|


              ~~                                      ~~~      ~~    ~~    ~~~~~
   E     +E   Q   T  T  T  T  T  T  T  T  T  T  T  T  E     E  E  E  E  E  E  E  E
|-19b20r(19)-19--14-17-15-14----15-14----------14--------|-19-20-17-20-15-20----20--|
|----------------------------17-------17-16-17----16-17/-|-------------------19-----|
|--------------------------------------------------------|--------------------------|
|--------------------------------------------------------|--------------------------|
|--------------------------------------------------------|--------------------------|
|--------------------------------------------------------|--------------------------|
|
|             ~~                                      ~~~      ~~    ~~    ~~~~~
|  E     +E   Q   T  T  T  T  T  T  T  T  T  T  T  T  E     E  E  E  E  E  E  E  E
|-20b22r(20)-20--17-20-19-17----19-17----------17--------|-19-20-17-20-15-20----20--|
|----------------------------20-------20-19-20----19-20--|-------------------19-----|
|--------------------------------------------------------|--------------------------|
|--------------------------------------------------------|--------------------------|
|--------------------------------------------------------|--------------------------|
|--------------------------------------------------------|--------------------------|


   ~~                     ~~               ~~
   E  E  E  E  E     +E   Q     Q          H     S  S  S  S
|-19-20-17-19-20b24r(20)-19--|------------------------------|
|----------------------------|-19b20------19----16-17-19-20-|
|----------------------------|------------------------------|
|----------------------------|------------------------------|
|----------------------------|------------------------------|
|----------------------------|------------------------------|
|
|  ~~                     ~~               ~~
|  E  E  E  E  E     +E   Q     E     +E   H     S  S  S  S
|-19-20-17-19-20b24r(20)-19--|-17b19r(17)-17----14-15-17-15-|
|----------------------------|------------------------------|
|----------------------------|------------------------------|
|----------------------------|------------------------------|
|----------------------------|------------------------------|
|----------------------------|------------------------------|


              ~~
   E     +E   Q  X  X  X  X  X  X  X  X  X  X  X  X  X  X  X  X  X  X  X  X  X   X
|---------------------------15-17-19-17-15-14-17-15-14----15-14-------14-----------|
|-19b20r(19)-19----16-17-19----------------------------17-------17-15----17-15--13-|
|----------------------------------------------------------------------------------|
|----------------------------------------------------------------------------------|
|----------------------------------------------------------------------------------|
|----------------------------------------------------------------------------------|
|
|             ~~                                                             ~~~
|  E     +E   Q  Q                                               S           E.
|-17b19r(17)-17--------------------------------------------------------------------|
|---------------------------------------------------------------------------17-----|
|----------------------------------------------------------------------------------|
|----------------------------------------------------------------------------------|
|----------------------------------------------------------------------------------|
|----------------------------------------------------------------------------------|


    X   X  X  X  X  X  X  X  X  X  X  X  X  X  X  X  X  X  T T  T  T T T E. +Q
|--------------------------------------------------------------------------------|
|--17--15-13-12-15-13-12----13-12-------12---------------------------------------|
|------------------------14-------14-12----14-12-11-14-12-11-9-12-11-9s8-9--(9)--|
|--------------------------------------------------------------------------------|
|--------------------------------------------------------------------------------|
|--------------------------------------------------------------------------------|
|
|   ~~~~~~~~~~~~~~~~~~~~~~~~~~~~~~~~~~~~~~~~~~~~~~~~~~~~~~~~~~~~~~~~~~~~~~~~~~~~~~
|  +W
|--------------------------------------------------------------------------------|
|-(17)---------------------------------------------------------------------------|
|--------------------------------------------------------------------------------|
|--------------------------------------------------------------------------------|
|--------------------------------------------------------------------------------|
|--------------------------------------------------------------------------------|


    ~~~~
    H     H
|--------------|
|--------------|
|--21----------|
|--------------|
|--------------|
|--------------|
|
|~~~~~~
|  +W
|--------------|
|-(17)---------|
|--------------|
|--------------|
|--------------|
|--------------|


  Gtr II
    ~~~~~~~~~~~~~~~~~~~~~~~~                        ~~
                                |--3--|                   |--3--|
   +W            +Q    H        E  E  E    E.    S  H     E  E  E
|-------------|-------14-------14-15-17-|-17b19-20p17----14-15-17b19==|
|-(17)--------|-(17)--17b19-------------|-----------------------------|
|-------------|-------------------------|-----------------------------|
|-------------|-------------------------|-----------------------------|
|-------------|-------------------------|-----------------------------|
|-------------|-------------------------|-----------------------------|


               ~~~~~~~
   +S    S  S  S  +H      S  S      +E
|-(17)r-18s20p17-(17)----15p14b15==(14)--|
|----------------------------------------|
|----------------------------------------|
|----------------------------------------|
|----------------------------------------|
|----------------------------------------|


            ~~~~~~~
   +S    T  T  +Q    E      +S    T  T  +E   S      +S    S  T  T
|-(14)r-18p14-(14)--12b14==(12)r-13p12-(12)-12b15==(12)r-10h12p10-|
|-----------------------------------------------------------------|
|-----------------------------------------------------------------|
|-----------------------------------------------------------------|
|-----------------------------------------------------------------|
|-----------------------------------------------------------------|


                                                                                                |--3---|   |--3--|
   X  X  X  X  X  X  X  X  X  X  X  X  X  X  X  X  X  X  X  X  X  X  X  X  X  X  X  X  X  X  X  S  S  +S   S  S  S  T  T  T  T  X  X  X  X X
|-15-10-12-14-12-10-15-12-14-12-10-15-12-14-12-10-15-12-14-12-10-15-12-14-12-10-15-12-14-12-10-14s19p(19)p15-------15p12----------------------|
|------------------------------------------------------------------------------------------------------------17-12-------------17p12----------|
|------------------------------------------------------------------------------------------------------------------------16p12-------13-------|
|---------------------------------------------------------------------------------------------------------------------------------------14p9--|
|---------------------------------------------------------------------------------------------------------------------------------------------|
|---------------------------------------------------------------------------------------------------------------------------------------------|


                                                                  ~~~~~~~
   T T  T T  T  T  T T  T  T T T.  X X X X X X X X  X X  T  T  T  T  +Q
|------------------------------------------------7-12p7-15p12-------------|
|-12p8------13p12p10-8-12p10p8-7--10p8p7-------8--------------------------|
|----------------------------------------9-8p9----------------12s11-(11)--|
|------12-9---------------------------------------------------------------|
|-------------------------------------------------------------------------|
|-------------------------------------------------------------------------|


                                                                                      ~~~~~~~~~~~~~
   X  X  X  X  X  X  X  X  X  X  X  X  X  X  X  X  X  X  X  X  X X  X  T  T T T T T T T +S  +E   S
|----------------------------10-12-10-------10------------------------------------------------------|
|-10-12-13-12-10----10-12-13----------13-12----13-12-10-13-12-10-8-10-12-10-8-7---8-7---------------|
|----------------12-------------------------------------------------------------9-----9-(9)-(9)-17--|
|---------------------------------------------------------------------------------------------------|
|---------------------------------------------------------------------------------------------------|
|---------------------------------------------------------------------------------------------------|


    ~~~~~~~~~~~~~
   +H.       +S  E.
|----------------------|
|----------------------|
|-(17)------(17)-9-----|
|----------------------|
|----------------------|
|----------------------|


        ~
  +S  S Q  T T T T X X X X X X X X X X X X X X X X X X X X  X X X  X
|--------------------------------------------------------------------|
|--------------------------------5-----5-7-x-----7-8---7-8-10-7-8-10-|
|-(9)--------------4-5---4-5-7-8---7-8-------8-9-----9---------------|
|-----7s5--7-4-5-7-----7---------------------------------------------|
|--------------------------------------------------------------------|
|--------------------------------------------------------------------|


                                                                  ~~~~~~
   X X  X  X X  X  X X  X  X X  X  X X  X  X  X  X  X  X  X  +T   Q   Q
|------------8-------8-10----8-10-12-8-10-12-14-10-12-14-15-(15)-15--17--|
|-12-8-10-12---10-12------12---------------------------------------------|
|------------------------------------------------------------------------|
|------------------------------------------------------------------------|
|------------------------------------------------------------------------|
|------------------------------------------------------------------------|


   |-----3-----|    |----3----|    |----3----|
   E     +E   +E   +E   +E   +E   +E   +E   +E  S  S  S  S
|-20b24r(20)-(20)-(20)-(20)-(20)-(20)-(20)-(20)---------14-|
|----------------------------------------------------17----|
|-------------------------------------------------16-------|
|----------------------------------------------------------|
|----------------------------------------------------------|
|----------------------------------------------------------|


                              ~~~~~~~~~~~~~~~
   S  X  X  X  S  S  S  S  S  E     +E.  +E   S  S
|-15-14-15-14----14-15-19-15-----------------12-10-|
|-------------17-------------19b20r(19)-(19)-------|
|--------------------------------------------------|
|--------------------------------------------------|
|--------------------------------------------------|
|--------------------------------------------------|


                                              ~~~~~~~~~~
    |---3----|  |--3--|  |--3---|
   +S   +S   S  S  S  S  S  S  +S   +E   +S   E.  +Q
|-(10)-(10)-14-15-14-12-10-12-(12)-(12)-(12)-10--(10)--|
|------------------------------------------------------|
|------------------------------------------------------|
|------------------------------------------------------|
|------------------------------------------------------|
|------------------------------------------------------|


 ~~~~~~              ~~
            |--3--|
   +E   Q   S  S  S  H      W
|-(10)--------------------|------|
|------13--13-15-13-12----|------|
|-------------------------|------|
|-------------------------|------|
|-------------------------|------|
|-------------------------|------|


  Gtr V
  W
|------*|
|------*|
|------*|
|------*|
|------*|
|------*|



Duration Legend
---------------
W - whole; H - half; Q - quarter; E - 8th; S - 16th; T - 32nd; X - 64th; a - acciaccatura
+ - note tied to previous; . - note dotted; .. - note double dotted
Uncapitalized letters represent notes that are staccato (1/2 duration)
Irregular groupings are notated above the duration line
Duration letters will always appear directly above the note/fret number it represents the
duration for.  Duration letters with no fret number below them represent rests.  Multi-
bar rests are notated in the form Wxn, where n is the number of bars to rest for.  Low
melody durations appear below the staff

Tablature Legend
----------------
 h   - hammer-on
 p   - pull-off
 b   - bend
 pb  - pre-bend
 r   - bend release (if no number after the r, then release immediately)
 /\  - slide into or out of (from/to "nowhere")
 s   - legato slide
 S   - shift slide
<n> - natural harmonic
[n]  - artificial harmonic
n(n) - tapped harmonic
 ~   - vibrato
 tr  - trill
 T   - tap
 TP  - trem. picking
 PM  - palm muting
\n/  - tremolo bar dip; n = amount to dip
 \n  - tremolo bar down
 n/  - tremolo bar up
/n\  - tremolo bar inverted dip
 =   - hold bend; also acts as connecting device for hammers/pulls
 <> - volume swell (louder/softer)
 x   - on rhythm slash represents muted slash
 o   - on rhythm slash represents single note slash

Misc Legend
-----------
 |  - bar
||  - double bar
||o - repeat start
o|| - repeat end
*|  - double bar (ending)
 :  - bar (freetime)
 $  - Segno
 &  - Coda
Tempo markers - <E/E./Q/Q./H/H.> = BPM(8/16=s8/s16), where s8 = swing 8ths, s16 = swing 16ths


** Generated using Power Tab Editor by Brad Larsen: The Official Power Tab Web Site