#----------------------------------PLEASE NOTE---------------------------------#
#This file is the author's own work and represents their interpretation of the #
#song. You may only use this file for private study, scholarship, or research. #
#------------------------------------------------------------------------------#

ALTITUDES
As recorded by Jason Becker
(From the 1988 Album PERPETUAL BURN)

Transcribed by Joe Lopez

Music by Jason Becker
Arranged by Jason Becker


Bm
x 2 4 4 3 2
D
x 5 4 2 3 x
F#sus4
2 4 4 4 2 2
F#
2 4 4 3 2 2
Em
0 2 2 0 0 0
C#
x 4 6 6 6 4
A
x 0 2 2 2 0
G
3 2 0 0 3 3
A/C#
x 4 2 2 5 x
Bm/D
x x 0 4 3 2
Bm/F#
x x 4 4 3 2
F#7/A#
x 1 4 3 2 0
Bmadd4
x 2 4 4 3 0
Bmadd2
x 2 4 6 3 2
G/B
x 2 5 4 3 x
A7sus4
x 0 2 0 3 0
A7
x 0 2 0 2 0
Bsus4add2
x 2 4 4 2 0
G#7
4 x 3 4 3 x
A#7/A
x 0 2 3 2 3
G#m
4 6 6 4 4 4
E
0 2 2 1 0 0
Fm
1 3 3 1 1 1
Db
x 4 3 1 2 x
Bbm
x 1 3 3 2 1
C
x 3 2 0 1 0
F
1 3 3 2 1 1

Gtr I (E A D G B E) - 'Rhythm'
Gtr II (E A D G B E) - 'Solo 1'
Gtr III (E A D G B E) - 'Key melody'
Gtr IV (E A D G B E) - 'Harmony'
Gtr V (E A D G B E) - 'Clean Harm1'
Gtr VI (E A D G B E) - 'Clean Harm2'

 Intro
  E=105
  Bm         D            Bm            F#sus4   F#
 6/8
  Gtr I
  H.         H.           H.            Q.       Q.
  |          |            |             |        |
  /          /            /             /        /

  Gtr II
     H.           H.           H.             H.
|----------|------------|-------------|----------------|
|----------|------------|-------------|----------------|
|----------|------------|-------------|----------------|
|----------|------------|-------------|----------------|
|----------|------------|-------------|----------------|
|----------|------------|-------------|----------------|


  E=105
  Bm
    H.
    |
    /

    ~~~~                ~~~~~
    Q      +T   T  S    Q       S  +S
|------------------------------------------|
|----------------------14b15---11-(11)b12--|
|-/11-----(11)-11-11-----------------------|
|------------------------------------------|
|------------------------------------------|
|------------------------------------------|


  F#sus4                     F#
   Q.                         Q.
   |                          |
   /                          /

   ~~~~~~                     ~~~
                                       |--3--|
   Q        a       +S.  +T   E.    S  S  S  S
|-------------------------------------------------|
|-11pb12---11pb12==(11)r(11)-11----11h12p11h14----|
|-------------------------------------------------|
|-------------------------------------------------|
|-------------------------------------------------|
|-------------------------------------------------|


  Em
   H.
   |
   /

   ~~~~~~~~~~~~~~~~~~~~~~
                                        |--3--|
   Q          +E    +E.    S    a      +E    +S
|---------------------------------------------------|
|-14b17======(14)--(14)r-------14b17==(14)r=(14)----|
|-------------------------(x)-----------------------|
|---------------------------------------------------|
|---------------------------------------------------|
|---------------------------------------------------|


  F#
   H.
   |
   /

   ~~~
                |--3--|                    |--3--|
   Q.     a  a  S  S  S  T  T  X  X  X  X  T  T  T  X  X  X  X
|-----------------------------------------14h15p14---------------|
|-14-----------14-------17-15-14h15p14-15----------17p15p14------|
|-----------15----15----------------------------------------16---|
|--------16----------16------------------------------------------|
|----------------------------------------------------------------|
|----------------------------------------------------------------|


  Bm
    H.
    |
    /

    ~~~~                ~~~~~
            |--3---|
    Q      +S   S  S    Q       S  +S
|------------------------------------------|
|----------------------14b15---11-(11)b12--|
|-/11-----(11)-11-11-----------------------|
|------------------------------------------|
|------------------------------------------|
|------------------------------------------|


  F#sus4                                          F#
   Q.                                               Q.
   |                                                |
   /                                                /

                                                                     ~~~
            |---3---|           |---------3---------|                        |--3--|
   a       +S   +S  S  a       +S   +S  T  a       +T   +S   +S      E.   S  S  S  S
|--------------------------------------------------------------------------------------|
|-11pb12==(11)r(11)---11pb12==(11)r(11)---11pb12==(11)r(11)-(11)b14-11---11h12p11h14---|
|--------------------------------------------------------------------------------------|
|--------------------------------------------------------------------------------------|
|--------------------------------------------------------------------------------------|
|--------------------------------------------------------------------------------------|


  Em
   H.
   |
   /

   ~~~~~                   ~~~~~~~~~
                                                  |---3---|
   E.    S S  s    E      +S        a      +S    +X   X  +X      X  X  X  X  X  X
|---------------------------------------------------------------15-------------------|
|-14b17------17\--17b19--(17)pb20r=17b19==(17)r=(17)s19-(19)b20----19-17-15----------|
|---------------------------------------------------------------------------18-16----|
|------------------------------------------------------------------------------------|
|------------------------------------------------------------------------------------|
|------------------------------------------------------------------------------------|


  F#                                                                         F#sus4           F#
   Q.                                                   +E                   E                 E
   |                                                     |                   |                 |
   /                                                     /                   /                 /

   ~~~                                                                                                        ~~
               |------6-------|                                                 |-----5-----|  |-----5-----|
   S.    X  X  T  T  T  T  T  T  X  X  X  X  X  X  X  X  X  X  X  X  X  X  X X  X  X  X  X  X  X  X  X  X  X  E
|-------------14h15-17p14h15----------------------14h15------------------------------------------------------------|
|----------15----------------17p14h15h17p14h15h17-------14h15h17-12h14h15------------------------------------------|
|-15----16----------------------------------------------------------------11---------------11h12h14----------------|
|------------------------------------------------------------------------------14p11h12h14----------11-------------|
|------------------------------------------------------------------------------------------------------12h14s16----|
|------------------------------------------------------------------------------------------------------------------|


  Bm
    H.
    |
    /

    ~~~~             ~~~~~~
           |--3---|
    Q     +S   S  S  Q        +T    T  S
|----------------------------------------|
|-------------------14b15====(14)r-------|
|-/11----(11)-11-11----------------11-11-|
|----------------------------------------|
|----------------------------------------|
|----------------------------------------|


  Em
   H.
   |
   /

   ~~~                                                 ~~~~~~~~~~~~~
   E    T  T  S  a      +S   +T  T  T        a   +T   +S       +E    T  T  T  T
|--------------------------------------------------------------------------------|
|---------------15b17==(15)r(15)---15pb17==(15)r(15)-(15)b17==(15)r--------------|
|-12---12-12-12------------------------------------------------------x-12-12-12--|
|--------------------------------------------------------------------------------|
|--------------------------------------------------------------------------------|
|--------------------------------------------------------------------------------|


  F#
   H.
   |
   /

   ~~~                                               ~~~~
   E.    T  T  S.     +T    T       +T   +S         +E     T    T   S
|------------------------------------------------------------------------|
|-------------17b19r=(17)--17pb19r=(17)-(17)pb19===(17)---(x)r-(x)-19----|
|-15----15-15------------------------------------------------------------|
|------------------------------------------------------------------------|
|------------------------------------------------------------------------|
|------------------------------------------------------------------------|


  Bm
   H.
   |
   /

   \1/                                 \1/
                                                                     ~~~
                                                      |--3---|                 |------6-------|  |----5:6----|
   a    +S.       +T   +T   X  X  X T  a    +S.      +T   T  T  X X  S.   +X   T  T  T  T  T  T  X  X  X  X  X
|--------------------------------------------------------------------------------------------------------------|
|-19---(19)b20===(19)r(19)p17p15s14---19---(19)b20r=(19)p17p15s14---19---(19)-17h19p17p15----------------------|
|-----------------------------------------------------------------------------------------16p15p12h15h16p15p12-|
|--------------------------------------------------------------------------------------------------------------|
|--------------------------------------------------------------------------------------------------------------|
|--------------------------------------------------------------------------------------------------------------|


  Bm
    H.
    |
    /

    ~~~~~~~~~                ~~~~~~~ T       ~~~~
                                                           |--3---|
    E    +E     X  X  T  S   S.      T   T  +S.    a      +S   S  S
|-------------------------------------------------------------------|
|---------------------------14b15=h=18p=14r(14)--(14)b15-(14)-------|
|-/11---(11)--\(4)---11-11------------------------------------11-11-|
|-------------------------------------------------------------------|
|-------------------------------------------------------------------|
|-------------------------------------------------------------------|


  Em
   H.
   |
   /

   ~~~                                             ~~~~~~~
   E.    T  T  a      +S.  +T   S        a   +S   +E      S  T  T
|------------------------------------------------------------------|
|-------------15b17==(15)r(15)-15pb17==(15)r(15)-(15)b17-----------|
|-12----12-12---------------------------------------------x-12-12--|
|------------------------------------------------------------------|
|------------------------------------------------------------------|
|------------------------------------------------------------------|


  F#
   H.
   |
   /

      ~~~                                              ~~~~~
                            |-------3--------|               |--3--|
   a  E.    T  T   E       +S         +S    +S        +E     S  S  S
|--------------------------------------------------------------------|
|-----------------17b19===(17)b19.5r=(17)--(17)b19===(17)r--11h12-14-|
|-12s15----15-15-----------------------------------------------------|
|--------------------------------------------------------------------|
|--------------------------------------------------------------------|
|--------------------------------------------------------------------|


  G
   H.
   |
   /

   \1/                                              \1/
                       ~~~~~~~              ~~
                                                    |---3---|
   a    +S.      +T   +E       S. X  X   a  Q      +S    S  S
|----------------------------------------------------------------|
|-14---(14)b15r=(14)-(14)b15--14h15p14--12h14-----(14)--14-14----|
|----------------------------------------------------------------|
|----------------------------------------------------------------|
|----------------------------------------------------------------|
|----------------------------------------------------------------|


  C#                                         F#sus4            F#
   H.                                         Q.               Q.
   |                                          |                |
   /                                          /                /

                      ~~~~~~~~                       ~~~~
                                   |--3--|
   Q         S.  +T   E   +S.   T  S  S  S    a     +H.
|------------------------------------------|-------------------------|
|-14b18=====14r=(14)-14--(14)--14s18p14h18-|-18b19-(18)--------------|
|------------------------------------------|-------------------------|
|------------------------------------------|-------------------------|
|------------------------------------------|-------------------------|
|------------------------------------------|-------------------------|


 Pre - chorus
  Q=116
  Em                          A
 4/4
  W                           W
  |                           |
  /                           /

  Gtr III
  ~~                             ~~~~~~~~~~~
                                        |--3--|
  Q.     E +Q      E    +E    E +Q     +S   S S Q   Q
|---------------------------|-----------------------------|
|--------7-(7)b8---7pb8r(7)-|-4-(4)b5==(4)r-3-2-3---5-----|
|---------------------------|-----------------------------|
|-9-------------------------|-----------------------------|
|---------------------------|-----------------------------|
|---------------------------|-----------------------------|
|
| Gtr V
| E  E E E  E    E E     E    E  E      E     E E E E E
|-----------7---------------|-------------------5---------|
|----8-----------8----------|----5----------------5-------|
|------9-----------9--------|-----------6-----------6-----|
|--------9---------------9--|-----------------7-------7---|
|---------------------------|-----------------------------|
|-0-------------------------|-5---------------------------|
|
| Gtr VI
| E  E E E  E    E E     E    E  E      E     E E E E E
|-----------3---------------|-----------------------------|
|----5-----------5----------|-------------------5---------|
|------4-----------4--------|----6----------------6-------|
|--------5---------------5--|-----------7-----------7-----|
|---------------------------|-----------------7-------7---|
|-0-------------------------|-5---------------------------|


  Bm
  W
  |
  /

       ~~~
                                              |--3--|
  E   +Q      a       +S   +S   +E      E  E  S  S  S
|--------------------------------------------------------|
|-6b7-(6)----11pb12==(11)r(11)-(11)b12-------------------|
|--------------------------------------11h12p11h12p11----|
|--------------------------------------------------------|
|--------------------------------------------------------|
|--------------------------------------------------------|
|
| E       E   E             E           E     E     E  E
|---------------------------------------2----------------|
|---------3-----------------------------------3----------|
|-------------4-------------------------------------4----|
|---------------------------4--------------------------4-|
|-2------------------------------------------------------|
|--------------------------------------------------------|
|
| E       E   E             E           E     E     E  E
|---------------------------------------7----------------|
|---------7-----------------------------------7----------|
|-------------7-------------------------------------7----|
|---------------------------9--------------------------9-|
|-9------------------------------------------------------|
|--------------------------------------------------------|


   W
   |
   /

   E   E   E   E S  S  S S  E  S S
|------------------10------14----------|
|---------12---------------------------|
|-----11------11------11------11-------|
|-12-----------------------------------|
|--------------------------------------|
|--------------------------------------|
|
|  E   E   E   E    E    E     E   E
|-------------------2------------------|
|------3-----------------3-------------|
|----------4-------------------4-------|
|--------------4-------------------4---|
|--2-----------------------------------|
|--------------------------------------|
|
|  E   E   E   E    E    E     E   E
|-------------------7------------------|
|------7-----------------7-------------|
|----------7-------------------7-------|
|--------------9-------------------9---|
|--9-----------------------------------|
|--------------------------------------|


  D
   W
   |
   /

   ~~~
   Q.     S  S  Q     Q
|-17-----17p14-----------------|
|--------------15----14b15=====|
|------------------------------|
|------------------------------|
|------------------------------|
|------------------------------|
|
|  E   E  E  E  E  E  E      E
|--------------10--------------|
|-----10----------10-----------|
|--------11----------11--------|
|-12--------12--------------10-|
|------------------------------|
|------------------------------|
|
|  E   E  E  E  E  E  E      E
|---------------2--------------|
|------3-----------3-----------|
|---------2-----------2--------|
|--0---------0---------------0-|
|------------------------------|
|------------------------------|


  F#
    W
    |
    /

                                                    |--3--|
    a   +Q      a       +E   +E   a       +E   +E   S  S  S E
|-----------------------------------------------------------------|
|-(14)r(14)----14pb15==(14)r(14)-14pb15==(14)r(14)-12h14p12s8-----|
|-----------------------------------------------------------------|
|-----------------------------------------------------------------|
|-----------------------------------------------------------------|
|-----------------------------------------------------------------|
|
|   E        E           E        E        E        E     E    E
|------------------------------------------9----------------------|
|-----------11-------------------------------------11-------------|
|-----------------------11-------------------------------11-------|
|--------------------------------11---------------------------11--|
|---9-------------------------------------------------------------|
|-----------------------------------------------------------------|
|
|   E        E           E        E        E        E     E    E
|------------------------------------------2----------------------|
|------------2--------------------------------------2-------------|
|------------------------3--------------------------------3-------|
|---------------------------------4----------------------------4--|
|-----------------------------------------------------------------|
|---2-------------------------------------------------------------|


  Bm
   W                                         W
   |                                         |
   /                                         /

   ~~~                        ~~~~~~~~~~~~~~~~~~
                                                          |-3-|       |-3--|
   Q.        E      +E.   S  +Q             +Q      a a E S S S E S S E  E E
|----------------------------------------|--------------9-7h9p7----------------|
|----------------------------------------|------------x---------8-7------------|
|-11-------------------------------------|----------x-------------------10-9---|
|-----------11b12==(11)--11r(11)---------|-(11)--------------------------------|
|----------------------------------------|-------------------------------------|
|----------------------------------------|-------------------------------------|
|
|  E   E  E          E    E      E  E  E     E   E  E   E   E   E   E    E
|-------------------------7--------------|------------------7------------------|
|------7-------------------------7-------|-------7--------------7--------------|
|---------7-------------------------7----|----------7---------------7----------|
|--------------------9-----------------9-|--------------9----------------9-----|
|--9-------------------------------------|---9---------------------------------|
|----------------------------------------|-------------------------------------|
|
|  E   E  E          E    E      E  E  E     E   E  E   E   E   E   E    E
|-------------------------2--------------|------------------2------------------|
|------3-------------------------3-------|-------3--------------3--------------|
|---------4-------------------------4----|----------4---------------4----------|
|--------------------4-----------------4-|--------------4----------------4-----|
|--2-------------------------------------|---2---------------------------------|
|----------------------------------------|-------------------------------------|


  G                          A
   W                          W
   |                          |
   /                          /

   ~~                            ~~              ~~~
                                       |--3---|
   H          +E   E  E  E    a  Q    +E   E  E  Q    Q
|--------------------------|------------------------------|
|------------------7-------|------------------------------|
|--7----------(7)--7p=4--7-|--7h=9----(9)--7p=6--7h===9---|
|--------------------------|------------------------------|
|--------------------------|------------------------------|
|--------------------------|------------------------------|
|
|  E  E  E  E  E   E  E  E    E  E  E  E   E  E  E  E
|-------------10-----------|--------------12--------------|
|----12-----------12-------|----14-----------14-----------|
|-------12-----------12----|-------14-----------14--------|
|----------12-----------12-|----------14-----------14-----|
|-10-----------------------|-12---------------------------|
|--------------------------|------------------------------|
|
|  E  E  E  E  E   E  E  E    E  E  E  E   E  E  E  E
|--------------3-----------|---------------0--------------|
|-----3------------3-------|-----2------------2-----------|
|--------0------------0----|--------2------------2--------|
|-----------0------------0-|-----------2------------2-----|
|--------------------------|--0---------------------------|
|--3-----------------------|------------------------------|


  F#
   W
   |
   /

           ~~~~                                    ~~~
   S      +E.   +E  S  S S S       a  +S  S  S    +E.
|--------------------------------------------------------|
|-------------------7h=8---------------------------------|
|-10b11--(10)--(10)--------9pb11==(9)r(9)p7--9b11-(9)----|
|--------------------------------------------------------|
|--------------------------------------------------------|
|--------------------------------------------------------|
|
|  E       E     E     E   E           E     E         E
|--------------------------9-----------------------------|
|---------11--------------------------11-----------------|
|---------------11--------------------------11-----------|
|---------------------11------------------------------11-|
|--9-----------------------------------------------------|
|--------------------------------------------------------|
|
|  E       E     E     E   E           E     E         E
|--------------------------2-----------------------------|
|--------------------------------------2-----------------|
|----------3---------------------------------3-----------|
|----------------4-------------------------------------4-|
|----------------------4---------------------------------|
|--2-----------------------------------------------------|


  D              A/C#
  H              H
  |              |
  /              /

     |-3-|
  E  S S S E  E  S S S S S S S S
|---------------------------------|
|---------------------------------|
|-9--7h9p7p6--7--9p7p6------------|
|----------------------7----------|
|------------------------7p5s4----|
|------------------------------5--|
|
| E  E     E  E  E   E   E   E
|----2-----------------------5----|
|----------3-------------5--------|
|-------------2------6------------|
|-0--------------7----------------|
|---------------------------------|
|---------------------------------|
|
| E  E     E  E  E   E   E   E
|---------------------------------|
|----3-----------------------2----|
|----------2-------------2--------|
|-0-----------0------2------------|
|----------------0----------------|
|---------------------------------|


  Bm
  W                                 +W
  |                                  |
  /                                  /

                      ~~~~~~~~~~~~~~~~~~~
  S S S S E     +E   +H             +Q       E  E  Q     E  E
|---------------------------------|-----------------------------|
|---------------------------------|-----------------------------|
|-----4-6-6b7===(6)--(6)----------|-(6)r-----6p=4--6-----7p=6---|
|---4-----------------------------|-----------------------------|
|-5-------------------------------|-----------------------------|
|---------------------------------|-----------------------------|
|
| E   E   E      E    E   E  E  E    E    E  E  E  E  E  E  E
|---------------------2-----------|----------------2------------|
|-----3-------------------3-------|-------3-----------3---------|
|----------------------------4----|----------4-----------4------|
|---------4---------------------4-|-------------4-----------4---|
|-2--------------4----------------|--2--------------------------|
|---------------------------------|-----------------------------|
|
| E   E   E      E    E   E  E  E    E    E  E  E  E  E  E  E
|---------------------7-----------|----------------7------------|
|-----7-------------------7-------|-------7-----------7---------|
|---------7------------------7----|----------7-----------7------|
|----------------9--------------9-|-------------9-----------9---|
|-9-------------------------------|--9--------------------------|
|---------------------------------|-----------------------------|


  Gtr I
   W
   |
   /

  Gtr II
             ~~
   Q    Q    H
|-----------------------|
|-----------12----------|
|------11---------------|
|-12--------------------|
|-----------------------|
|-----------------------|
|
| Gtr III
|            ~~
|  Q    Q    H
|-----------10----------|
|------12---------------|
|-11--------------------|
|-----------------------|
|-----------------------|
|-----------------------|
|
| Gtrs V, VI
|  E E  E E  E E E E
|------------7----------|
|----7-------7-7--------|
|----7--7------7-7------|
|--9----9-9------9-9----|
|--9------9--------9----|
|-----------------------|


 Breakdown 1
  Q             Q              Q               Q
  |
  /

  Gtr II
  |-----6-----| |-----6-----|  |-----6------|  |-3--|
  S S  S S  S S S S  S S S  S  S  S S  S  S S  S  S S E
|----------------------------------------------------------|
|----------------------------------------------------------|
|----------------------------------------------------------|
|----------------------------------------------------------|
|--------7-------------7-9-10-12-10-9----10-9--------------|
|-7-9-10---10-9-7-9-10----------------12------12-10-9-7----|
|
| Gtr IV
| |-----6-----| |-----6-----|  |-----6------|  |-3--|
| S S  S S  S S S S  S S S  S  S  S S  S  S S  S  S S E
|----------------------------------------------------------|
|----------------------------------------------------------|
|----------------------------------------------------------|
|--------5-------------5-7--9-11--9-7-----9-7--------------|
|-5-7--9----9-7-5-7--9----------------10------10--9-7-5----|
|----------------------------------------------------------|
|
|                           W
|----------------------------------------------------------|
|----------------------------------------------------------|
|----------------------------------------------------------|
|----------------------------------------------------------|
|----------------------------------------------------------|
|----------------------------------------------------------|


 Chorus 1
  Q=118
  Em
   W
   |
   /

  Gtr III
   Q.               Q.                    Q
|-----------------------------------------------------|
|-------------------8---------------------7-----------|
|-----------------------------------------------------|
|--9--------------------------------------------------|
|-----------------------------------------------------|
|-----------------------------------------------------|
|
| Gtr II
|  |----6----|  |----6-----|  |----6----| |----6----|
|  S S S S S S  S S S  S S S  S S S S S S S S S S S S
|-12p7-------7-12p7--------7-12p7-------------------7-|
|------8---8--------8----8--------8---------------8---|
|--------9-------------9------------9-----------9-----|
|-------------------------------------9p5---5h9-------|
|-----------------------------------------7-----------|
|-----------------------------------------------------|


  A
   W
   |
   /

   Q              E      E       Q              Q
|----------------------------------------------------------------|
|----------------------------------------------------------------|
|--9--------------7------6-------7--------------9----------------|
|----------------------------------------------------------------|
|----------------------------------------------------------------|
|----------------------------------------------------------------|
|
|  |-----6-----|  |-----6-----|  |-----6-----|  |-----6-----|
|  S S  S S  S S  S S  S S  S S  S S  S S  S S  S S  S S  S S
|-12p9---------9-12p9---------9-14p9---------9-12p9---------9----|
|------10---10--------10---10--------10---10--------10---10------|
|---------9--------------9--------------9--------------9---------|
|----------------------------------------------------------------|
|----------------------------------------------------------------|
|----------------------------------------------------------------|


  Bm
   W
   |
   /

   Q                 E        E        E        E        E        E
|-------------------------------------------------------------------------|
|-------------------12-------11-------12----------------------------------|
|-11-------------------------------------------11-------12-------11-------|
|-------------------------------------------------------------------------|
|-------------------------------------------------------------------------|
|-------------------------------------------------------------------------|
|
|  |------6-------|  |------6-------|  |------6-------|  |------6-------|
|  S  S  S  S  S  S  S  S  S  S  S  S  S  S  S  S  S  S  S  S  S  S  S  S
|-14p10----------10-14p10----------10-14p10----------10-14p10----------10-|
|-------12----12----------12----12----------12----12----------12----12----|
|----------11----------------11----------------11----------------11-------|
|-------------------------------------------------------------------------|
|-------------------------------------------------------------------------|
|-------------------------------------------------------------------------|


   W
   |
   /

   E        E        E        E        E        E        E        E
|-------------------------------------10----------------14-------------------|
|-------------------12-------------------------------------------------------|
|----------11----------------11----------------11----------------11----------|
|-12-------------------------------------------------------------------------|
|----------------------------------------------------------------------------|
|----------------------------------------------------------------------------|
|
|  |------6-------|  |------6-------|  |------6-------|  |------6-------|
|  S  S  S  S  S  S  S  S  S  S  S  S  S  S  S  S  S  S  S  S  S  S  S  S
|-19p14----------------------------14-19p14----------------------------14----|
|-------15----------------------15----------15----------------------15-------|
|----------16----------------16----------------16----------------16----------|
|-------------16p12----12h16----------------------16p12----12h16-------------|
|-------------------14----------------------------------14-------------------|
|----------------------------------------------------------------------------|


  D
   W
   |
   /

   Q.                         Q.                          Q
|-17-------------------------14--------------------------------------------|
|--------------------------------------------------------15----------------|
|--------------------------------------------------------------------------|
|--------------------------------------------------------------------------|
|--------------------------------------------------------------------------|
|--------------------------------------------------------------------------|
|
|  |------6-------|  |-------6-------|  |------6-------|  |------6-------|
|  S  S  S  S  S  S  S  S  S  S   S  S  S  S  S  S  S  S  S  S  S  S  S  S
|-17p14----------14-17p14-----------14-19p14----------14-17p14----------14-|
|-------15----15----------15-----15----------15----15----------15----15----|
|----------14----------------14-----------------14----------------14-------|
|--------------------------------------------------------------------------|
|--------------------------------------------------------------------------|
|--------------------------------------------------------------------------|


  F#
   W
   |
   /

   Q                 E        E        E        E        E        E
|----------------------------------------------------------------------------|
|-14----------------15-------14-------15-------14----------------------------|
|-------------------------------------------------------16-------12----------|
|----------------------------------------------------------------------------|
|----------------------------------------------------------------------------|
|----------------------------------------------------------------------------|
|
|  |------6-------|  |------6-------|  |------6-------|  |------6-------|
|  S  S  S  S  S  S  S  S  S  S  S  S  S  S  S  S  S  S  S  S  S  S  S  S
|-18p14----------14-18p14----------14-21p14----------14-18p14----------14----|
|-------14----14----------14----14----------14----14----------14----14-------|
|----------15----------------15----------------15----------------15----------|
|----------------------------------------------------------------------------|
|----------------------------------------------------------------------------|
|----------------------------------------------------------------------------|


  Bm
   W
   |
   /

   Q.                         Q.                          Q
|--------------------------------------------------------------------------|
|--------------------------------------------------------------------------|
|--------------------------------------------------------------------------|
|-16-------------------------12--------------------------11----------------|
|--------------------------------------------------------------------------|
|--------------------------------------------------------------------------|
|
|  |------6-------|  |-------6-------|  |------6-------|  |------6-------|
|  S  S  S  S  S  S  S  S  S  S   S  S  S  S  S  S  S  S  S  S  S  S  S  S
|-19p14-----------------------------14-19p14----------------------------14-|
|-------15-----------------------15----------15----------------------15----|
|----------16----------------16-----------------16----------------16-------|
|-------------16p12----12h16-----------------------16p12----12h16----------|
|-------------------14-----------------------------------14----------------|
|--------------------------------------------------------------------------|


    W
    |
    /

                                                                |------3-------|
   +Q                 E        E        E           E          +E        E     E
|---------------------9--------7--------------------------------------------------------|
|---------------------------------------8-----------7----------(7)----------------------|
|-----------------------------------------------------------------------10-----9--------|
|-(11)----------------------------------------------------------------------------------|
|---------------------------------------------------------------------------------------|
|---------------------------------------------------------------------------------------|
|
|   |------6-------|  |------6-------|
|   S  S  S  S  S  S  S  S  S  S  S  S  T  T  T  T  T  T  T  T  T  T  T  T  T  T  T  T
|--19p14----------------------------14-14p10----10-15p10----10-14p10----10-13p10----10--|
|--------15----------------------15----------12----------12----------12----------12-----|
|-----------16----------------16--------------------------------------------------------|
|--------------16p12----12h16-----------------------------------------------------------|
|--------------------14-----------------------------------------------------------------|
|---------------------------------------------------------------------------------------|


  G
   W
   |
   /

   H                                 +E        E        E        E
|------------------------------------------------------------------------|
|------------------------------------------------------------------------|
|--7---------------------------------(7)-------7-----------------7-------|
|-------------------------------------------------------9----------------|
|------------------------------------------------------------------------|
|------------------------------------------------------------------------|
|
|  |------6-------|  |------6------|  |------6-------|  |------6-------|
|  S  S  S  S  S  S  S  S  S  S  S S  S  S  S  S  S  S  S  S  S  S  S  S
|-15p10----------10-15p10---------------------------10-15p10----------10-|
|-------12----12----------12---------------------12----------12----12----|
|----------12----------------12---------------12----------------12-------|
|-------------------------------12p9-----9h12----------------------------|
|------------------------------------10----------------------------------|
|------------------------------------------------------------------------|


  A
   W
   |
   /

   Q                 E        E        Q                 Q
|----------------------------------------------------------------------------|
|----------------------------------------------------------------------------|
|--9-----------------7--------6--------7-----------------9-------------------|
|----------------------------------------------------------------------------|
|----------------------------------------------------------------------------|
|----------------------------------------------------------------------------|
|
|  |------6-------|  |------6-------|  |------6-------|  |------6-------|
|  S  S  S  S  S  S  S  S  S  S  S  S  S  S  S  S  S  S  S  S  S  S  S  S
|-17p12----------12-17p12----------12-17p12----------------------------------|
|-------14----14----------14----14----------14-------------------------------|
|----------14----------------14----------------14----------------14----------|
|-------------------------------------------------14p11----11h14----14p11----|
|-------------------------------------------------------12-------------------|
|----------------------------------------------------------------------------|


  F#
  W
  |
  /

  E       E      E       E       E       E       E        E
|-----------------------------------------------------------------|
|-7------10------8-------7----------------------------------------|
|--------------------------------9-------7-------6----------------|
|---------------------------------------------------------9-------|
|-----------------------------------------------------------------|
|-----------------------------------------------------------------|
|
| |-----6------| |-----6------|  |-----6------|  |------6-------|
| S S  S  S  S S S S  S  S  S S  S S  S  S  S S  S  S  S  S  S  S
|-----------------------------9-14p9----------9-14h18p14----------|
|--------------------------11--------11----11------------14-------|
|--------11-------------11--------------11------------------15----|
|---8h11----11p8---8h11----------------------------------------16-|
|-9--------------9------------------------------------------------|
|-----------------------------------------------------------------|


  D                                   A/C#
   H                                   H
   |                                   |
   /                                   /

   E        E        E        E        E        E        E        E
|----------------------------------------------------------------------------|
|--------------------7-------10----------------------------------------------|
|-----------7--------------------------9--------7--------6--------7----------|
|--7-------------------------------------------------------------------------|
|----------------------------------------------------------------------------|
|----------------------------------------------------------------------------|
|
|  |------6-------|  |------6-------|  |------6-------|  |------6-------|
|  S  S  S  S  S  S  S  S  S  S  S  S  S  S  S  S  S  S  S  S  S  S  S  S
|----------------17-22p17----------------------------------------------------|
|-------------19----------19-------------------------------------------------|
|----------19----------------19----------------19-------------14-18p14-------|
|----16h19----------------------19p16----16h19----19p16----14----------14----|
|-17----------------------------------17----------------16-------------------|
|----------------------------------------------------------------------------|


  Bm
   W
   |
   /

   W
|------------------------------------------------------------------------------|
|------------------------------------------------------------------------------|
|------------------------------------------------------------------------------|
|--9---------------------------------------------------------------------------|
|------------------------------------------------------------------------------|
|------------------------------------------------------------------------------|
|
|  |--------7--------|  |--------7--------|  |--------7--------|  |--3--|
|  S  S  S  S  S  S  S  S  S  S  S  S  S  S  S  S  S  S  S  S  S  S  S  S  S S
|------------------------------------------------------------------------------|
|----------------------------------------------------15h17p15----15-17-19-20---|
|-------------------------------14h16p14----14-16-18----------18---------------|
|----------14h16p14----14-16-17----------17------------------------------------|
|-14-16-17----------17---------------------------------------------------------|
|------------------------------------------------------------------------------|


   W
   |
   /

  +Q              E     E        Q              E      E
|-----------------------------------------------------------------|
|-----------------------------------------------------------------|
|-----------------------------------------------------------------|
|-(9)------------11-----9-------11-------------12-----11----------|
|-----------------------------------------------------------------|
|-----------------------------------------------------------------|
|
|  |-----7-----|  |-----7-----|  |-----7-----|  |-----7------|
|  S S S S S S S  S S S S S S S  S S S S S S S  S S S  S S S S
|-----------------------------------------------------------------|
|-----------------------------------------------5h7p5----5-7-8----|
|--------------------------------4h6-4---4-6-7---------7----------|
|-----------------4h5p4---4-5-7--------7--------------------------|
|--4h5p4---4-5-7--------7-----------------------------------------|
|--------7--------------------------------------------------------|


   W
   |
   /

   Q               Q                  Q                    Q
|------------------------------------------------------------------------|
|------------------------------------14----------------------------------|
|-----------------11-----------------------------------------------------|
|-12---------------------------------------------------------------------|
|------------------------------------------------------------------------|
|------------------------------------------------------------------------|
|
|  |-----7------|  |-------7-------|  |--------7--------|  |--3--|
|  S S S S S S  S  S  S S  S S  S  S  S  S  S  S  S  S  S  S  S  S  E
|------------------------------------------------------------------------|
|--7h8p7---7-8-10--8h10p8----8-10-12-10h12p10----10-12-14-10-12-14-15----|
|--------9----------------11------------------12-------------------------|
|------------------------------------------------------------------------|
|------------------------------------------------------------------------|
|------------------------------------------------------------------------|


 Breakdown 2
 6/4
  Gtr II
   |------6-------|  |------6-------|  |------6-------|  |------6-------|  |------6-------|  |------6-------|
   S  S  S  S  S  S  S  S  S  S  S  S  S  S  S  S  S  S  S  S  S  S  S  S  S  S  S  S  S  S  S  S  S  S  S  S
|----------------------------------------------------------------------------------------------------------------|
|----------------------------------------------------------------------------------10----------------------------|
|-----------------------------------------------------------------7--9-11--9-11-12----12-11--9-12-11--9----------|
|--------------------------------------7-----------------7--9-11----------------------------------------12-11----|
|-----------7-----------------7--9-10----10--9--7--9-10----------------------------------------------------------|
|--7--9-10----10--9--7--9-10-------------------------------------------------------------------------------------|
|
| Gtr IV
|  |------6-------|  |------6-------|  |------6-------|  |------6-------|  |------6-------|  |------6-------|
|  S  S  S  S  S  S  S  S  S  S  S  S  S  S  S  S  S  S  S  S  S  S  S  S  S  S  S  S  S  S  S  S  S  S  S  S
|----------------------------------------------------------------------------------------------------------------|
|----------------------------------------------------------------------------------14----------------------------|
|----------------------------------------------------------------11-12-14-12-14-16----16-14-12-16-14-12----------|
|-------------------------------------11----------------11-12-14----------------------------------------16-14----|
|----------10----------------10-12-14----14-12-10-12-14----------------------------------------------------------|
|-10-12-14----14-12-10-12-14-------------------------------------------------------------------------------------|


 Solo 1
  Bm
 4/4
  Gtr I
  W
  |
  /

  |----6----| |----6----| |----6----| |----6----|
  S S S S S S S S S S S S S S S S S S S S S S S S
|-----7-------------------------------------------|
|-3h7---7p3-------3-7p3-------7-------------------|
|-----------6-4h6-------6-4h6---6p4-------4-6p4---|
|-----------------------------------5-4h5-------5-|
|-------------------------------------------------|
|-------------------------------------------------|


  Bm
  W
  |
  /

  |----6----| |----6----| |----6----| |----6----|
  S S S S S S S S S S S S S S S S S S S S S S S S
|----------------------------------------------------|
|-----7----------------------------------------------|
|-4h6---6p4-------4-6p4---6p4------------------------|
|-----------5-4h5-------5-----5-4-----5p4------------|
|---------------------------------5-4-----5-4--------|
|---------------------------------------------7-3----|


  F#
  W
  |
  /

  |----6----| |----6----| |----6----| |----6----|
  S S S S S S S S S S S S S S S S S S S S S S S S
|-------------------------------------------------|
|-------------------------------------------------|
|-------------------------------2-4-6S7-6-4-------|
|-------------------------2-4-5-------------7-5-4-|
|-------2-----------2-4-5-------------------------|
|-2-3-5---5-3-2-3-5-------------------------------|


  W
  |
  /

  |----6----| |----6----| |----6----| |----6----|
  S S S S S S S S S S S S S S S S S S S S S S S S
|----------------------------------------------------|
|----------------------------------------------------|
|-------9-7-6-------------9-7-6----------------------|
|-------------9-7-5-------------9-7-5----------------|
|-7-5-4-------------9-7-5-------------9-7-5----------|
|-------------------------------------------9-7-5----|


  Bm                Bm/D              Bm/F#    Bm/D     Bm
   Q                 Q                 E        E        Q
   |                 |                 |        |        |
   /                 /                 /        /        /

  Gtr II
   |------6-------|  |------6-------|  |------6-------|  |------6-------|
   S  S  S  S  S  S  S  S  S  S  S  S  S  S  S  S  S  S  S  S  S  S  S  S
|-------------------------------------------------------------------------|
|-------------------------------------------------------------------------|
|-----------------------------------------------------------------7-------|
|--------------------------------------7-----------------7--9-11----11--9-|
|-----------7-----------------7--9-10----10--9--7--9-10-------------------|
|--7--9-10----10--9--7--9-10----------------------------------------------|
|
| Gtr IV
|  |------6-------|  |------6-------|  |------6-------|  |------6-------|
|  S  S  S  S  S  S  S  S  S  S  S  S  S  S  S  S  S  S  S  S  S  S  S  S
|-------------------------------------------------------------------------|
|-------------------------------------------------------------------------|
|----------------------------------------------------------------11-------|
|-------------------------------------11----------------11-12-14----14-12-|
|----------10----------------10-12-14----14-12-10-12-14-------------------|
|-10-12-14----14-12-10-12-14----------------------------------------------|


  Bm/D              Bm/F#    Bm/D     Bm                Bm/D
   Q                 E        E        Q                 Q
   |                 |        |        |                 |
   /                 /        /        /                 /

   |------6-------|  |------6-------|  |------6-------|  |------6-------|
   S  S  S  S  S  S  S  S  S  S  S  S  S  S  S  S  S  S  S  S  S  S  S  S
|-----------------------------------------------9-----------------9-10-12----|
|--------------------8-----------------8-10-12----12-10--8-10-12-------------|
|-----------7--9-11----11--9--7--9-11----------------------------------------|
|--7--9-11-------------------------------------------------------------------|
|----------------------------------------------------------------------------|
|----------------------------------------------------------------------------|
|
|  |------6-------|  |------6-------|  |------6-------|  |------6-------|
|  S  S  S  S  S  S  S  S  S  S  S  S  S  S  S  S  S  S  S  S  S  S  S  S
|----------------------------------------------12----------------12-14-15----|
|-------------------12----------------12-14-15----15-14-12-14-15-------------|
|----------11-12-14----14-12-11-12-14----------------------------------------|
|-11-12-14-------------------------------------------------------------------|
|----------------------------------------------------------------------------|
|----------------------------------------------------------------------------|


  Bm                                  Bm/D
   H                                   H
   |                                   |
   /                                   /

  Gtr II
   |------6-------|  |------6-------|  |------6-------|  |------6-------|
   S  S  S  S  S  S  S  S  S  S  S  S  S  S  S  S  S  S  S  S  S  S  S  S
|-------------------------------------------------------------------------|
|-------------------------------------------------------------------------|
|--------------------------------------------------------7-11--9--7--9-11-|
|--------------------------------------7--9-11--7--9-11-------------------|
|--------------------7-10--9--7--9-10-------------------------------------|
|--7--9-10--7--9-10-------------------------------------------------------|
|
| Gtr IV
|  |------6-------|  |------6-------|  |------6-------|  |------6-------|
|  S  S  S  S  S  S  S  S  S  S  S  S  S  S  S  S  S  S  S  S  S  S  S  S
|-------------------------------------------------------------------------|
|-------------------------------------------------------------------------|
|-------------------------------------------------------11-14-12-11-12-14-|
|-------------------------------------11-12-14-11-12-14-------------------|
|-------------------10-14-12-10-12-14-------------------------------------|
|-10-12-14-10-12-14-------------------------------------------------------|


  F#                                  Bm
   H                                   H
   |                                   |
   /                                   /

   |------6-------|  |------6-------|  |------6-------|  |----6-----|
   S  S  S  S  S  S  S  S  S  S  S  S  S  S  S  S  S  S  S S S  S S S
|--------------------9-12-10--9-10-12-14-10------------------------------|
|--8-10-12--8-10-12-------------------------12---------------------------|
|----------------------------------------------11------------------------|
|-------------------------------------------------12---------------------|
|----------------------------------------------------14-10-9-7-----------|
|--------------------------------------------------------------10-9-7----|
|
|                                      ~~
|  |------6-------|  |------6-------|
|  S  S  S  S  S  S  S  S  S  S  S  S  H
|-------------------12-15-14-12-14-15S19---------------------------------|
|-12-14-15-12-14-15------------------------------------------------------|
|------------------------------------------------------------------------|
|------------------------------------------------------------------------|
|------------------------------------------------------------------------|
|------------------------------------------------------------------------|


 Solo 2
  Em                           Bm
  W                            W
  |                            |
  /                            /

  ~~                               ~~~~~~
       |-3-| |----3----|                              |--3--|
  Q.   S S S Q   Q  a +Q       E S S +E   S S S S S S E  E  E
|----------------------------|----------------------------------|
|----------------------------|----------------------------------|
|----------------------------|------------------------4--6--7---|
|-5----4h5p4-----4--4-(4)b5--|-4--------------------4-----------|
|------------7---------------|-----7-(7)--5p4-5---5-------------|
|----------------------------|------------------7---------------|


  Em             Bm
  H              H
  |              |
  /              /

    ~                 ~~
  a Q  +S  S S S S S  Q.
|---------------------------|
|---------------------------|
|-7s9--(9)-x-7---6h7--4-----|
|---------------------------|
|---------------------------|
|---------------------------|


  F#7/A#                   Bm
  H                         H
  |                         |
  /                         /

                                        ~~~~~~~
  E S  S +E    S      +S    S      +S   E  +E   E
|----------------------------------------------------|
|----------------------------------------------------|
|-3----4-(4)--[6]pb7r([6])-[6]pb7r([6])p4--(4)-------|
|----------------------------------------------------|
|----------------------------------------------------|
|----------------------------------------------------|


  Em                              Bm
  W                                W
  |                                |
  /                                /

  ~                                   ~~~                         ~~
                        |--3--|
  H       +S   S  S  S  E  E  E    S  E.   +E   S  S  S  S  S  S  Q
|-------------------------------|--------------------------------------|
|----------------------12-14-15-|-15p12---(12)-12p10s12h15p12----------|
|-4-------(4)-11-12-14----------|-----------------------------14-11----|
|-------------------------------|--------------------------------------|
|-------------------------------|--------------------------------------|
|-------------------------------|--------------------------------------|
|
| Gtr IV
| ~                                   ~~~                         ~~
|                       |--3--|
| H       +S   S  S  S  E  E  E    S  E.   +E   S  S  S  S  S  S  Q
|-------------------------------|--------------------------------------|
|----------------------15-17-19-|-19p15---(15)-15p14s15h19p15----------|
|-7-------(7)-14-16-18----------|-----------------------------18-16----|
|-------------------------------|--------------------------------------|
|-------------------------------|--------------------------------------|
|-------------------------------|--------------------------------------|


  Em             Bm                      F#7/A#            Bm
   H               H                       H                H
   |               |                       |                |
   /               /                       /                /

                   \1.5                    \1.5   |
                                                                  ~~
   E     e  e  E  +S     +S    E  E  E    +S     +S    s S  e  E  H
|-17b19-17-15-14-(14)---(14)--15-14-12-|-(12)---(12)--14---12----------|
|--------------------------------------|----------------------15-12----|
|--------------------------------------|-------------------------------|
|--------------------------------------|-------------------------------|
|--------------------------------------|-------------------------------|
|--------------------------------------|-------------------------------|
|
|                  \1.5                    \1.5
|                                                                 ~~
|  E     e  e  E  +S     +S    E  E  E    +S     +S    s S  E  E  H
|-22b23-21-19-17-(17)---(17)--19-17-15-|-(15)---(15)--17---15-14-------|
|--------------------------------------|-------------------------15----|
|--------------------------------------|-------------------------------|
|--------------------------------------|-------------------------------|
|--------------------------------------|-------------------------------|
|--------------------------------------|-------------------------------|


 Interlude
  Bmadd4
   W
   |
   /

  Gtr IV
   T           T           T     T           T           T           T     T           T
   T  T  T  T  T  T  T  T  T  T  T  T  T  T  T  T  T  T  T  T  T  T  T  T  T  T  T  T  T  T  T  T
|----------------------------------------------------------------------------------------------------|
|-17p12p=7h12h17p12p=7h12h17p12h17p12p=7h12h17p12p=7h12h17p12p=7h12h17p12h17p12p=7h12h17p12p=7h12----|
|----------------------------------------------------------------------------------------------------|
|----------------------------------------------------------------------------------------------------|
|----------------------------------------------------------------------------------------------------|
|----------------------------------------------------------------------------------------------------|
|
| Gtr VI
|  S     S     S     S     S     S     S     S     S     S     S     S     S     S     S     S
|-12p===10----------------------10----12p===10----------------------10----12p===10----------10-------|
|-------------12----------12----------------------12----------12----------------------12-------------|
|-------------------11----------------------------------11-------------------------------------------|
|----------------------------------------------------------------------------------------------------|
|----------------------------------------------------------------------------------------------------|
|----------------------------------------------------------------------------------------------------|


  Bm
   W
   |
   /

  Gtr IV
   T           T           T     T           T           T           T     T           T
   T  T  T  T  T  T  T  T  T  T  T  T  T  T  T  T  T  T  T  T  T  T  T  T  T  T  T  T  T  T  T  T
|----------------------------------------------------------------------------------------------------|
|-15p12p=7h12h15p12p=7h12h15p12h15p12p=7h12h15p12p=7h12h15p12p=7h12h15p12h15p12p=7h12h15p12p=7h12----|
|----------------------------------------------------------------------------------------------------|
|----------------------------------------------------------------------------------------------------|
|----------------------------------------------------------------------------------------------------|
|----------------------------------------------------------------------------------------------------|
|
| Gtr VI
|  S     S     S     S     S     S     S     S     S     S     S     S     S     S     S     S
|-14p===10----------------------10----14p===10----------------------10----14p===10----------10-------|
|-------------12----------12----------------------12----------12----------------------12-------------|
|-------------------11----------------------------------11-------------------------------------------|
|----------------------------------------------------------------------------------------------------|
|----------------------------------------------------------------------------------------------------|
|----------------------------------------------------------------------------------------------------|


  Bmadd4
   W
   |
   /

  Gtr IV
   T           T           T     T           T           T           T     T           T
   T  T  T  T  T  T  T  T  T  T  T  T  T  T  T  T  T  T  T  T  T  T  T  T  T  T  T  T  T  T  T  T
|----------------------------------------------------------------------------------------------------|
|-15p12p=5h12h15p12p=5h12h15p12h15p12p=5h12h15p12p=5h12h15p12p=5h12h15p12h15p12p=5h12h15p12p=5h12----|
|----------------------------------------------------------------------------------------------------|
|----------------------------------------------------------------------------------------------------|
|----------------------------------------------------------------------------------------------------|
|----------------------------------------------------------------------------------------------------|
|
| Gtr VI
|  S     S     S     S     S     S     S     S     S     S     S     S     S     S     S     S
|-12p===10----------------------10----12p===10----------------------10----12p===10----------10-------|
|-------------12----------12----------------------12----------12----------------------12-------------|
|-------------------11----------------------------------11-------------------------------------------|
|----------------------------------------------------------------------------------------------------|
|----------------------------------------------------------------------------------------------------|
|----------------------------------------------------------------------------------------------------|


  Bmadd2
   W
   |
   /

  Gtr IV
   T          T           T     T           T           T           T     T          T
   T  T T  T  T  T  T  T  T  T  T  T  T  T  T  T  T  T  T  T  T  T  T  T  T  T T  T  T  T T  T
|-------------------------------------------------------------------------------------------------|
|-14p12p5h12h14p12p=5h12h14p12h14p12p=5h12h14p12p=5h12h14p12p=5h12h14p12h14p12p5h12h14p12p5h12----|
|-------------------------------------------------------------------------------------------------|
|-------------------------------------------------------------------------------------------------|
|-------------------------------------------------------------------------------------------------|
|-------------------------------------------------------------------------------------------------|
|
| Gtr VI
|  |-3--|
|  S  S S     S     S     S     S     S     S     S     S     S     S     S    S     S    S
|--9h10p9-----------------------9----10p====9-----------------------9----10p===9----------9-------|
|------------12----------12----------------------12----------12---------------------12------------|
|------------------11----------------------------------11-----------------------------------------|
|-------------------------------------------------------------------------------------------------|
|-------------------------------------------------------------------------------------------------|
|-------------------------------------------------------------------------------------------------|


  Bm
   W
   |
   /

  Gtr IV
   T        T        T    T         T         T         T    T         T
   |------6------|
   S S  S   S S  S   T T  T T  T T  T T  T T  T T  T T  T T  T T  T T  T T  T T
|----------------------------------------------------------------------------------|
|-12p7p=3h=12p7p=3h=12p7h12p7p=3h7h12p7p=3h7h12p7p=3h7h12p7h12p7p=3h7h12p7p=3h7----|
|----------------------------------------------------------------------------------|
|----------------------------------------------------------------------------------|
|----------------------------------------------------------------------------------|
|----------------------------------------------------------------------------------|
|
| Gtr VI
|  S    S   S    S   S    S    S    S    S    S    S    S    S    S    S    S
|-14p==10----------------10---19p==14------------------14---19p==14--------14------|
|----------12-------12------------------15--------15------------------15-----------|
|---------------11---------------------------16------------------------------------|
|----------------------------------------------------------------------------------|
|----------------------------------------------------------------------------------|
|----------------------------------------------------------------------------------|


  G/B
   W
   |
   /

  Gtr IV
   T         T         T    T         T         T         T    T         T
   T T  T T  T T  T T  T T  T T  T T  T T  T T  T T  T T  T T  T T  T T  T T  T T
|------------------------------------------------------------------------------------|
|-12p8p=3h7h12p8p=3h8h12p8h12p7p=3h8h12p7p=3h8h12p8p=3h8h12p8h12p8p=3h8h12p7p=3h8----|
|------------------------------------------------------------------------------------|
|------------------------------------------------------------------------------------|
|------------------------------------------------------------------------------------|
|------------------------------------------------------------------------------------|
|
| Gtr VI
|  S    S    S    S    S    S    S    S    S    S    S    S    S    S    S    S
|-19p==15------------------19---22p==15------------------15---19p==15--------15------|
|-----------15--------15------------------15--------15------------------15-----------|
|----------------16----------------------------16------------------------------------|
|------------------------------------------------------------------------------------|
|------------------------------------------------------------------------------------|
|------------------------------------------------------------------------------------|


  A7sus4
   W
   |
   /

  Gtr IV
   T         T         T    T         T         T         T    T         T
   T T  T T  T T  T T  T T  T T  T T  T T  T T  T T  T T  T T  T T  T T  T T  T T
|------------------------------------------------------------------------------------|
|-10p5p=3h5h10p5p=3h5h10p5h10p5p=3h5h10p5p=3h5h10p5p=3h5h10p5h10p2h=3h5h10p5p=3p2----|
|------------------------------------------------------------------------------------|
|------------------------------------------------------------------------------------|
|------------------------------------------------------------------------------------|
|------------------------------------------------------------------------------------|
|
| Gtr VI
|  S    S    S    S    S    S    S    S    S    S    S    S    S    S    S    S
|-17p==15------------------15---17p==15------------------15---17p==15--------15------|
|-----------15--------15------------------15--------15------------------15-----------|
|----------------14----------------------------14------------------------------------|
|------------------------------------------------------------------------------------|
|------------------------------------------------------------------------------------|
|------------------------------------------------------------------------------------|


  A
   W
   |
   /

  Gtr IV
   T         T         T    T         T         T         T    T         T
   T T  T T  T T  T T  T T  T T  T T  T T  T T  T T  T T  T T  T T  T T  T T  S
|----------------------------------------------------------------------------------|
|-10p5p=2h5h10p5p=2h5h10p5h10p5p=2h5h10p5p=2h5h10p5p=2h5h10p5h10p5p=2h5h10p5p=2----|
|----------------------------------------------------------------------------------|
|----------------------------------------------------------------------------------|
|----------------------------------------------------------------------------------|
|----------------------------------------------------------------------------------|
|
| Gtr VI
|  S    S    S    S    S    S    S    S    S    S    S    S    S    S    S    S
|-17p==12------------------12---17p==12------------------12---17p==12--------12----|
|-----------14--------14------------------14--------14------------------14---------|
|----------------14----------------------------14----------------------------------|
|----------------------------------------------------------------------------------|
|----------------------------------------------------------------------------------|
|----------------------------------------------------------------------------------|


  A7
   W
   |
   /

  Gtr IV
   T         T         T    T         T         T         T    T         T
   T T  T T  T T  T T  T T  T T  T T  T T  T T  T T  T T  T T  T T  T T  T T  S
|----------------------------------------------------------------------------------|
|--8p5p=2h5h=8p5p=2h5h=8p5h=8p5p=2h5h=8p5p=2h5h=8p5p=2h5h=8p5h=8p5p=2h5h=8p5p=2----|
|----------------------------------------------------------------------------------|
|----------------------------------------------------------------------------------|
|----------------------------------------------------------------------------------|
|----------------------------------------------------------------------------------|
|
| Gtr VI
|  S    S    S    S    S    S    S    S    S    S    S    S    S    S    S    S
|-15p==12------------------12---15p==12--------------------------------------------|
|-----------14--------14------------------14---------------------------------------|
|----------------14----------------------------14---12------------------12---14----|
|--------------------------------------------------------14--------14--------------|
|-------------------------------------------------------------16-------------------|
|----------------------------------------------------------------------------------|


  Bm
   W
   |
   /

  Gtr IV
   T          T         T    T         T         T         T    T         T
   T  T  T T  T T  T T  T T  T T  T T  T T  T T  T T  T T  T T  T T  T T  T T  T T
|-------------------------------------------------------------------------------------|
|--7p=3p=0h3h=7p3p=0h3h=7p3h=7p3p=0h3h=7p3p=0h3h=7p3p=0h3h=7p3h=7p3p=0h3h=7p3p=0h3----|
|-------------------------------------------------------------------------------------|
|-------------------------------------------------------------------------------------|
|-------------------------------------------------------------------------------------|
|-------------------------------------------------------------------------------------|
|
| Gtr VI
|  |--3--|
|  S  S  S    S    S    S    S    S    S    S    S    S    S    S    S    S    S
|-10h14p10------------------10---14p==10------------------10---14p==10--------10------|
|------------12--------12------------------12--------12------------------12-----------|
|-----------------11----------------------------11------------------------------------|
|-------------------------------------------------------------------------------------|
|-------------------------------------------------------------------------------------|
|-------------------------------------------------------------------------------------|


  Bsus4add2
   W
   |
   /

  Gtr IV
   T         T         T    T         T         T         T    T         T
                                                                         |-3--|
   T T  T T  T T  T T  T T  T T  T T  T T  T T  T T  T T  T T  T T  T T  S S  S
|----------------------------------------------------------------------------------|
|--7p5p=2h5h=7p5p=2h5h=7p5h=7p5p=2h5h=7p5p=2h5h=7p5p=2h5h=7p5h=7p5p=2h5h=7p5p=2----|
|----------------------------------------------------------------------------------|
|----------------------------------------------------------------------------------|
|----------------------------------------------------------------------------------|
|----------------------------------------------------------------------------------|
|
| Gtr VI
|  S    S    S    S    S    S    S    S    S    S    S    S    S    S    S    S
|-14p==12------------------12---14p==12------------------12---14p==12--------12----|
|-----------12--------12------------------12--------12------------------12---------|
|----------------11----------------------------11----------------------------------|
|----------------------------------------------------------------------------------|
|----------------------------------------------------------------------------------|
|----------------------------------------------------------------------------------|


  Bm
   W
   |
   /

  Gtr IV
   T        T        T    T         T        T        T   T        T
   |------6------|             |-3--|   |------6------|   |------6------|
   S S  S   S S  S   T T  T T  S S  S   S S  S   S S  S   S S  S   S S  S
|----------------------------------------------------------------------------|
|--7p3p=0---7p3p=0---7p3h=7p3p=0h7p=3p==0h7--3---0h7--3---7p3p=0---7p3p=0----|
|----------------------------------------------------------------------------|
|----------------------------------------------------------------------------|
|----------------------------------------------------------------------------|
|----------------------------------------------------------------------------|
|
| Gtr VI
|  S    S   S    S   S    S    S    S   S    S   S    S   S    S   S    S
|-14p==10----------------10---14p==10----------------10--14p==10-------10----|
|----------12-------12-----------------12-------12----------------12---------|
|---------------11--------------------------11-------------------------------|
|----------------------------------------------------------------------------|
|----------------------------------------------------------------------------|
|----------------------------------------------------------------------------|


  G#7
   W
   |
   /

  Gtr IV
   T        T        T    T         T         T      T      T        T
   |------6------|                                 |-3--|   |------6------|
   S S  S   S S  S   T T  T T  T T  T T  T T  T T  S S  S   S S  S   S S  S
|------------------------------------------------------------------------------|
|--9p6p=2---9p6p=3---9p6h=9p6p=3h6h=9p6p=3h6h=9p6--3h9p=6h==9p6p=3h==9p6p=3----|
|------------------------------------------------------------------------------|
|------------------------------------------------------------------------------|
|------------------------------------------------------------------------------|
|------------------------------------------------------------------------------|
|
| Gtr VI
|  S    S   S    S   S    S    S    S    S    S    S    S   S    S   S    S
|-16p==13----------------13---19p==16------------------16--22p==19-------19----|
|----------15-------15------------------18--------18----------------21---------|
|---------------16---------------------------19--------------------------------|
|------------------------------------------------------------------------------|
|------------------------------------------------------------------------------|
|------------------------------------------------------------------------------|


  A
   W
   |
   /

  Gtr IV
   T        T        T    T         T         T         T   T        T
   |------6------|                                 |-3--|   |------6------|
   S S  S   S S  S   T T  T T  T T  T T  T T  T T  S S  S   S S  S   S S  S
|------------------------------------------------------------------------------|
|-10p5p=2--10p5p=2--10p5h10p5p=2h5h10p5p=2h5h10p5h10p5p=2--10p5p=2--10p5p=2----|
|------------------------------------------------------------------------------|
|------------------------------------------------------------------------------|
|------------------------------------------------------------------------------|
|------------------------------------------------------------------------------|
|
| Gtr VI
|  S    S   S    S   S    S    S    S    S    S    S    S   S    S   S    S
|-21p==17----------------17---17p==12------------------12--17p==12-------12----|
|----------17---------------------------14--------14----------------14---------|
|---------------18---------------------------14--------------------------------|
|-------------------19---------------------------------------------------------|
|------------------------------------------------------------------------------|
|------------------------------------------------------------------------------|


  A#7/A
   W
   |
   /

  Gtr IV
   T         T        T    T        T        T     T       T         T
             |-3--|             |-3-|
   T T  T T  S S  S   T T  T T  S S S   T T  T T T T  T T  T T  T T  T T  T T
|--------------------------------------------------------------------------------|
|--8p5p=2h8p=5p2h=5h==8p5h=8p5p=2h8p5p==2h5h=8p5p2h5h=8p5h=8p5p=2h5h=8p5p=2s5----|
|--------------------------------------------------------------------------------|
|--------------------------------------------------------------------------------|
|--------------------------------------------------------------------------------|
|--------------------------------------------------------------------------------|
|
| Gtr VI
|  S    S    S    S   S    S    S   S   S    S   S    S    S    S    S    S
|-15p==12----------------------12p==9--------------------------------------------|
|-----------14-------------------------11-----------------14p==11--------11------|
|----------------15--12---------------------12---9------------------12-----------|
|-------------------------14-------------------------11--------------------------|
|--------------------------------------------------------------------------------|
|--------------------------------------------------------------------------------|


  A#7/A
   W
   |
   /

  Gtr IV
   T        T        T    T       T  T      T           T     T           T
   |------6------|             |--3--|   |--3--|                          |--3--|
   S S  S   S S  S   T T  T T  S  S  S   S  S  S  T  T  T  T  T  T  T  T  S  S  S
|------------------------------------------------------------------------------------|
|-11p8p=5--11p8p=5--11p8h11p8p=5h14p11---8h14p11--8h11h14p11-14p11p=8h11-14p11p=8----|
|------------------------------------------------------------------------------------|
|------------------------------------------------------------------------------------|
|------------------------------------------------------------------------------------|
|------------------------------------------------------------------------------------|
|
| Gtr VI
|                                                 |--3--|                 |--3--|
|  S    S   S    S   S    S    S     S   S     S  S  S  S     S     S     S  S  S
|-15p==12----------------------------------------------------------------------------|
|----------14------------------------------------------------------------------11----|
|---------------15p=12----------------------------------------------------9h12-------|
|------------------------14----------------------------------------11----------------|
|-----------------------------16----13--10-------------10----13----------------------|
|---------------------------------------------12--9h12-------------------------------|


 Guitar solo 2
  G#m
  W                            +W
  |                             |
  /                             /

  Gtr II
  ~~~~                                                           ~~~~~~~
  H.           +S  +S  S T T    E     +E      +S  +E  S     +E   E  +E.  S
|----------------------------|------------------------------------------------|
|-7b9==========(7)r(7)-7-4---|--7pb9r=(7)b9===(7)r(7)-7b11==(7)r=7--(7)-------|
|----------------------------|------------------------------------------------|
|----------------------------|------------------------------------------------|
|----------------------------|------------------------------------------------|
|----------------------------|------------------------------------------------|


  E
  W
  |
  /

                              |-3--|
  e  e  e a    +E  +S  S S S +E  e e
|------------------------------------|
|-7--4--7----------------------------|
|---------6b8==(6)r(6)-4---------6-4-|
|------------------------6-4-(4)-----|
|------------------------------------|
|------------------------------------|


  +W
   |
   /

                                     ~
                          |---6----|          |-3-|
   a    +S. +T  a    +E  +E  S S S S Q  +S  S S S S
|----------------------------------------------------|
|----------------------------------------------------|
|--6b8==(6)r(6)-6b8==(6)r(6)-4--------------------4--|
|------------------------------6-4------------4-6----|
|----------------------------------6-4--(4)h6--------|
|----------------------------------------------------|


  G#m
  W
  |
  /

  PM--|
  |-3-| |-3-|  |-3--|  |--3--|
  E E E e e e  E E  E  E  E  E
|------------------------------|
|---------7-9s12p9h12s14p12h14-|
|---4-6-8----------------------|
|-6----------------------------|
|------------------------------|
|------------------------------|


  +W
   |
   /

       ~~~~~~~~~~~~~~             ~~~~~~~~~~~~~~
   S  +E.       +E    a   S  S T  E..      +E     S  S
|-14-(14)b16===(14)r-(x)-14p11---13pb14===(13)r--12p11---|
|--------------------------------------------------------|
|--------------------------------------------------------|
|--------------------------------------------------------|
|--------------------------------------------------------|
|--------------------------------------------------------|


  E
   W
   |
   /

                                           ~~~~~~~~
   S      +E.    a   +E    S  S T  T      +E.   E.   S
|-19b21==(19)--(19)r(19)--18h19--------------------------|
|---------------------------------19b21==(19)--19---(x)r-|
|--------------------------------------------------------|
|--------------------------------------------------------|
|--------------------------------------------------------|
|--------------------------------------------------------|


   W
   |
   /

   E  S  S  +S  S  S.   T    E   +E        S       +S        E
|-------18-(18)---19--------21--(21)b23===21pb23==(21)b24===21r---|
|-21------------------(21)----------------------------------------|
|-----------------------------------------------------------------|
|-----------------------------------------------------------------|
|-----------------------------------------------------------------|
|-----------------------------------------------------------------|


 Guitar solo 3
  Bm
   W                                     +W
   |                                      |
   /                                      /

  Gtr II
           ~~~~~~~~~                                        PM--|
                        |-3--|  |-3--|    |-3-| |-3-| |-3-| |-3-|
   E       E   +Q       E  E E  E  E E    E E E E E E E E E E E E
|-12b14===12--(12)r----12p10p9---------|-----------------------------|
|------------------------------10------|-----------------------------|
|---------------------------------11-7s|==6--------------------------|
|--------------------------------------|----7-4----------------------|
|--------------------------------------|--------5p4-----4---2-4-5----|
|--------------------------------------|------------5-2---5----------|
|
| Gtr IV
|  ~~~~~~
|  W                                                  W
|-21pb23-------------------------------|-----------------------------|
|--------------------------------------|-----------------------------|
|--------------------------------------|-----------------------------|
|--------------------------------------|-----------------------------|
|--------------------------------------|-----------------------------|
|--------------------------------------|-----------------------------|


  Bsus4add2
  W
  |
  /

                                    |-3-| |-3-|
  S +S    +S  +S    E.  T T T T T T S S S S S S T T T T
|-------------------------------------------------------|
|-------------------------------------------------------|
|-------------------------------------------------------|
|-----------------------------2h4h5s7p5p4h5p4---4-------|
|-4-(4)b5r(4)-(4)b5r4---2h4h5-----------------7---7p5p4h|
|-------------------------------------------------------|


  +W
   |
   /

           |-3-| |----6----|         |-3-| |---5---|
   T T T T S S S S S S S S S T T T T S S S T T T T T T T T T
|--------------------------------------------------------------|
|------------------------------------------------5h7-7p5-------|
|--------------6s4h6p4-----------4h6h7p6p4s6h7h9---------7p6---|
|------4h5h7s9---------7p4h7p5h7-------------------------------|
|--5h7---------------------------------------------------------|
|--------------------------------------------------------------|


  Bm
  W
  |
  /

                           ~~~~~~~
                                       |-3-|
  a  E      +E    +T  t S  E  +E   S S E e E
|--------------------------------------------|
|--------------------------------------7---7-|
|-x-[6]b7r=([6])--(6)-4---[4]-(4)--4-----4---|
|--------------------------------------------|
|--------------------------------------------|
|--------------------------------------------|


  G/B
   W
   |
   /

                             ~~~~~~~~~~~
  +E     +E   +Q         a  +E   E  +E   E
|----------------------------------------------|
|-(7)b8r=(7)--(7)b10====(7)r(7)--7--(7)--7s====|
|----------------------------------------------|
|----------------------------------------------|
|----------------------------------------------|
|----------------------------------------------|


  A7sus4
   W
   |
   /

         ~~~~~~~~
   |--3--|
   E  E  E  +E..  T  S  S S  S S  S S  S
|-------------------------9-12p9---------|
|-12p10-10-(10)--------10--------10------|
|--------------------9--------------9----|
|-------------------------------------11-|
|----------------------------------------|
|----------------------------------------|


  A
   W
   |
   /

             |3-|        |-----5-----|  |-----5-----|           |--3--|
   S  S S  S S  E  S  S  T  T  T  T  T  T  T  T  T  T  S  T  T  S  S  S
|------------9-12s17p12----------------------------12-17p12----------12--|
|---------10------------14----------------------14----------14----14-----|
|-------9------------------14----------------14----------------14--------|
|----11-----------------------14-11----11-14-----------------------------|
|-12--------------------------------12-----------------------------------|
|------------------------------------------------------------------------|


  A7
   W
   |
   /

                            PM---------|
   |---5----|   |--3--|  |--3--|  |--3--|
   S  S  S  E   E  E  E  E  E  E  e  e  e
|-15p12-----------------------------------|
|-------14--------------------------------|
|----------14--14-12----------------------|
|--------------------14-11----------------|
|--------------------------12-10----12-10-|
|--------------------------------12-------|


  Bm
   W
   |
   /

                                 ~~~~~
                                                                                    |----5----|
   E    +S       +S    +X       +S.   X  T  T T  T  T  T T  T  T T  T  T T  T  T T  T T  T T  T
|-------------------------------------------------------------------------------------------------|
|-------------------------------------------------------------------------------------------------|
|--------------------------------------------------------------------------------9-11-9-12p9------|
|---------------------------------------------9h11h12p11p9---------------9-11-12-------------11---|
|-[9]--([9])b10r([9])-([9])b10r([9])--9h10h12--------------12-10-9-10-12--------------------------|
|-------------------------------------------------------------------------------------------------|


  Bsus4add2
  W
  |
  /

  |----5-----|                               |--------7--------|  |--------7--------|
  T T  T  T  T  S S  T  T  T  T  T  T  T  T  S  S  S  S  S  S  S  S  S  S  S  S  S  S
|-------------------14-12h14p12----------------------------------------------------12-|
|-----------10-12---------------15-14-12----------------------------------12-14-15----|
|-7-9-11-12------------------------------14-12-11----------------11-12-14-------------|
|-------------------------------------------------14-12-11-12-14----------------------|
|-------------------------------------------------------------------------------------|
|-------------------------------------------------------------------------------------|


  Bm
   W
   |
   /

                                    \1_____|
                                                ~~~~~~~~~~~      ~~~
   |------6-------|  |-----5-----|                     |--3---|
   T  T  T  T  T  T  T  T  T  T  T  E.    +S   +E     +S   S  S  E.   S
|-12h14p12p10----------------10-12-14----(14)-(14)---(14)p10h14p10---(x)----|
|-------------14-12-10-12-14------------------------------------------------|
|---------------------------------------------------------------------------|
|---------------------------------------------------------------------------|
|---------------------------------------------------------------------------|
|---------------------------------------------------------------------------|


  G#7
   W
   |
   /

                                   \1.5____/    \1.5___/0.5____|
   ~~
   Q     +T   S  T  T  T  T  T  S  E      +S   +E      S      +S
|-16----(16)p13----------------13-16-----(16)-(16)----16-----(16)-|
|---------------15----------15------------------------------------|
|------------------16p13h16---------------------------------------|
|-----------------------------------------------------------------|
|-----------------------------------------------------------------|
|-----------------------------------------------------------------|


  A
    W
    |
    /

    \1/
            |--3--|  |--3--|  |------6-------|  |-----6-----|  |-----5-----|  |-------6--------|
   +E       S  S  S  S  S  S  T  T  T  T  T  T  S  T  T  T  T  T  T  T  T  T  S  S  S  +S   S  S
|-(16)b17p=12----------------------------12-17p12----------------------------12h17p12-(12)----12---|
|-------------14----------------------14----------14----------------------14---------------14------|
|----------------14----------------14----------------14----------------14--------------------------|
|-------------------14p11----11h14----------------------14-11----11-14-----------------------------|
|-------------------------12----------------------------------12-----------------------------------|
|--------------------------------------------------------------------------------------------------|


  A#7/A
   W
   |
   /

   |------6-------| |-----6------|
   S  S  S  S  S  S S  S S  S  S S  T  T  T  T  T  T  T  T  T  T  T  T  T  T  T T
|-15p12--------------------------9s12h15p12----------------------12h15p12h14s12p9-|
|-------14--------------------11------------14-11----11h14p11-14------------------|
|----------15p12----9h12-9-12---------------------12------------------------------|
|----------------14---------------------------------------------------------------|
|---------------------------------------------------------------------------------|
|---------------------------------------------------------------------------------|
|
| Gtr V
|                                W
|---------------------------------------------------------------------------------|
|---------------------------------------------------------------------------------|
|---------------------------------------------------------------------------------|
|---------------------------------------------------------------------------------|
|---------------------------------------------------------------------------------|
|---------------------------------------------------------------------------------|
|
| Gtr VI
|                                W
|---------------------------------------------------------------------------------|
|---------------------------------------------------------------------------------|
|---------------------------------------------------------------------------------|
|---------------------------------------------------------------------------------|
|---------------------------------------------------------------------------------|
|---------------------------------------------------------------------------------|


   W
   |
   /

   |----5----|  |-----5-----|                  |------6-------|
   S  S S S  S  T  T  T  T  T  T  T  T   T  a  S  S  S  S  S  S   S S  E
|-----------------------12h15p12-----------15s19p15----------15--21----------|
|-11-----------------14----------14-----14----------17----17-----------------|
|----12p9-9-12-12h15----------------15-----------------18--------------------|
|----------------------------------------------------------------------------|
|----------------------------------------------------------------------------|
|----------------------------------------------------------------------x\----|
|
|                                    H.                       Q
|----------------------------------------------------------------------------|
|----------------------------------------------------------------------------|
|----------------------------------------------------------------------------|
|----------------------------------------------------------------------------|
|-------------------------------------------------------------x\-------------|
|----------------------------------------------------------------------------|
|
|                                    H.                       Q
|----------------------------------------------------------------------------|
|----------------------------------------------------------------------------|
|----------------------------------------------------------------------------|
|----------------------------------------------------------------------------|
|-------------------------------------------------------------x\-------------|
|----------------------------------------------------------------------------|


 Breakdown 3
  Q=122
 7/8
  Gtr II
   |------6-------|  |------6-------|  |------6-------|  |--3--|
   S  S  S  S  S  S  S  S  S  S  S  S  S  S  S  S  S  S  S  S  S
|----------------------------------------------------------------|
|----------------------------------------------------------------|
|----------------------------------------------------------------|
|----------------------------------------------------------------|
|-----------7-----------------7--9-10S12-10--9----10--9----------|
|--7--9-10----10--9--7--9-10-------------------12-------12-10--9-|
|
| Gtr IV
|  |------6-------|  |------6-------|  |------6-------|  |--3--|
|  S  S  S  S  S  S  S  S  S  S  S  S  S  S  S  S  S  S  S  S  S
|----------------------------------------------------------------|
|----------------------------------------------------------------|
|----------------------------------------------------------------|
|----------------------------------------------------------------|
|----------10----------------10-12-14S16-14-12----14-12----------|
|-10-12-14----14-12-10-12-14-------------------15-------15-14-12-|


   |------6-------|  |------6-------|  |------6-------|
   S  S  S  S  S  S  S  S  S  S  S  S  S  S  S  S  S  S  T  T  T  T
|--------------------------------------------------------------------|
|--------------------------------------------------------------------|
|--------------------------------------------------------------------|
|--------------------------------------------------------------------|
|----------10----------------10-12-13S15-13-12----13-12--------------|
|-10-12-13----13-12-10-12-13-------------------15-------15-13-12-10--|
|
|  |------6-------|  |------6-------|  |------6-------|
|  S  S  S  S  S  S  S  S  S  S  S  S  S  S  S  S  S  S  T  T  T  T
|--------------------------------------------------------------------|
|--------------------------------------------------------------------|
|--------------------------------------------------------------------|
|--------------------------------------------------------------------|
|----------13----------------13-15-17S19-17-15----17-15--------------|
|-13-15-17----17-15-13-15-17-------------------18-------18-17-15-13--|


 Finale
  Q=126
  Bm
 4/4
  Gtr I
  W                 +W
  |                  |
  /                  /

           ~~                                          ~~
                        |------------3------------|
  Q    Q   Q   q     a  q    q    a       +E     +E    Q    Q
|-----------------|---------14---------------------------------|
|---------12--14--|-14h15--------14pb15==(14)r==(14)--12-------|
|----/11----------|----------------------------------------11--|
|-----------------|--------------------------------------------|
|-----------------|--------------------------------------------|
|-----------------|--------------------------------------------|
|
| Gtrs IV, VI
| W                                           W
|-----------------|--------------------------------------------|
|-----------------|--------------------------------------------|
|-----------------|--------------------------------------------|
|-----------------|--------------------------------------------|
|-5---------------|--------------------------------------------|
|-7---------------|--------------------------------------------|
|
| Gtr III
|                    PM--------|
|                    |----3----|
| W                  Q    Q    Q              H
|-----------------|--------------------------------------------|
|-----------------|--------------------------------------------|
|-4---------------|---------------------------4----------------|
|-4---------------|---------------------------4----------------|
|-2---------------|--2----2----2--------------2----------------|
|-----------------|--------------------------------------------|


  G
   W                     +W
   |                      |
   /                      /

      ~~~                 ~~~~
   a  Q.    E    H       +W
|---------------------|-----------------|
|---------------------|-----------------|
|-12h14----12---12----|-(12)------------|
|---------------------|-----------------|
|---------------------|-----------------|
|---------------------|-----------------|
|
|             W                  W
|---------------------|-----------------|
|---------------------|-----------------|
|---------------------|-----------------|
|---------------------|-----------------|
|---------------------|-----------------|
|---------------------|-----------------|
|
|                         PM-----|
|                         |--3---|
|  W                      Q   Q  Q  H
|---------------------|-----------------|
|---------------------|-----------------|
|---------------------|-----------------|
|--5------------------|-------------5---|
|--5------------------|-------------5---|
|--3------------------|---3---3--3--3---|


  Em
  W                                         +W
  |                                          |
  /                                          /

  Q   a     +Q    a      +Q    a      +Q     E a     +E   a      +E  E  a      +Q.   E
|-----------------------------------------|---------------------------------------------|
|-----------------------------------------|-12p8pb10r(8)---------------10pb12r(10)------|
|-x\--9pb12r(9)--11pb14r(11)--12pb14r(12)-|--------------11pb12r(11)p9---------------9--|
|-----------------------------------------|---------------------------------------------|
|-----------------------------------------|---------------------------------------------|
|-----------------------------------------|---------------------------------------------|
|
| W                                          W
|-----------------------------------------|---------------------------------------------|
|-----------------------------------------|---------------------------------------------|
|-----------------------------------------|---------------------------------------------|
|-2---------------------------------------|--2------------------------------------------|
|-2---------------------------------------|--2------------------------------------------|
|-0---------------------------------------|--0------------------------------------------|


  Bm                                    G  F#
                                    |--3---|
   W                       +H      +Q   Q  Q
   |                        |       |   |  |
   /                        /       /   /  /

                  ~~~~~~~~~~~~~
   a      +H     +H        +W
|-----------------------|--------------------|
|-----------------------|--------------------|
|-11pb12r(11)---(11)----|-(11)---------------|
|-----------------------|--------------------|
|-----------------------|--------------------|
|-----------------------|--------------------|
|
|                                   |--3---|
|  W                       +H      +Q   Q  Q
|-----------------------|--------------------|
|-----------------------|--------------------|
|--4--------------------|--(4)-----(4)-------|
|--4--------------------|--(4)-----(4)--5--4-|
|--2--------------------|--(2)-----(2)--5--4-|
|-----------------------|---------------3--2-|


  Q=123
  Fm
  W                       +W
  |                        |
  /                        /

      \2/
                     ~~                           ~~
                               |------3-------|
  Q   a    +Q    Q   Q     a   Q   Q   E     +E   Q   S  S  +S      +S
|-----------------------|---------20------------------------------------|
|---------------18h=20--|-20h=21------20b21r(20)-18-----18-(18)b20r(18)-|
|----17---(17)----------|----------------------------17-----------------|
|-----------------------|-----------------------------------------------|
|-----------------------|-----------------------------------------------|
|-----------------------|-----------------------------------------------|
|
| W                       +W
|-----------------------|-----------------------------------------------|
|-----------------------|-----------------------------------------------|
|-----------------------|-----------------------------------------------|
|-3---------------------|-(3)-------------------------------------------|
|-3---------------------|-(3)-------------------------------------------|
|-1---------------------|-(1)-------------------------------------------|


  Db
   W                               +W
   |                                |
   /                                /

            ~~~~~~~~        ~~~~~~~~~~~
   a  S  S  E   +E    S  S  H      +W
|-------------------------------|---------|
|-------------------------------|---------|
|-17h20-17-20--(20)--18-17-18---|-(18)----|
|-------------------------------|---------|
|-------------------------------|---------|
|-------------------------------|---------|
|
|  W                               +W
|-------------------------------|---------|
|-------------------------------|---------|
|--6----------------------------|--(6)----|
|--6----------------------------|--(6)----|
|--4----------------------------|--(4)----|
|-------------------------------|---------|


  Bbm
    W                                              +W
    |                                               |
    /                                               /

    Q    a  E       +E    a      +Q  a     +Q       a      +E  a     +E   a      +E   a      +E   a      +Q.   E
|------------------------------------9pb10r(9)---|-13pb14r(13)-9pb11r(9)-------------------------11pb13r(11)-------|
|--------x-11pb13r=(11)--13pb14r(13)-------------|-----------------------13pb14r(13)-11pb13r(11)--------------11---|
|------------------------------------------------|-----------------------------------------------------------------|
|------------------------------------------------|-----------------------------------------------------------------|
|-\(6)-------------------------------------------|-----------------------------------------------------------------|
|------------------------------------------------|-----------------------------------------------------------------|
|
|                                              PM                                 PM                             PM
|   H..                                        E    Q.                            E               Q.             E
|------------------------------------------------|-----------------------------------------------------------------|
|------------------------------------------------|-----------------------------------------------------------------|
|---3--------------------------------------------|--3---------------------------------------------3----------------|
|---3--------------------------------------------|--3---------------------------------------------3----------------|
|---1------------------------------------------1-|--1-----------------------------1---------------1--------------1-|
|------------------------------------------------|-----------------------------------------------------------------|


  Fm                                                      DbC
                                                      |---3---|
   W                              +H                 +Q   Q   Q
   |                               |                  |   |   |
   /                               /                  /   /   /

                         ~~~~~~~~~~~~~~~~~~~~
   E       +E    +Q     +H        +Q     +E   E       Q     Q
|------------------------------|---------------------------------|
|-13pb14r=(13)--(13)---(13)----|-(13)---(13)--x------------------|
|------------------------------|---------------------------------|
|------------------------------|---------------------------------|
|------------------------------|---------------------------------|
|------------------------------|---------------------------------|
|
|                                                 |----3----|
|  W                              +H             +Q     Q   Q
|------------------------------|---------------------------------|
|--6---------------------------|--(6)------------(6)-------------|
|--5---------------------------|--(5)------------(5)----6---5----|
|--3---------------------------|--(3)------------(3)----6---5----|
|------------------------------|------------------------4---3----|
|------------------------------|---------------------------------|


  Bm
  W                +W
  |                 |
  /                 /

  Q    Q   Q   Q    a  E S  S  +S  S  S      +S   +S  S  E      +E   +S   S
|----------------|---------14-(14)------------------------------------------|
|---------12--14-|-14s15-------------14pb15r(14)-(14)-----------------------|
|----/11---------|--------------------------------------14b16==(14)r(14)p11-|
|----------------|----------------------------------------------------------|
|----------------|----------------------------------------------------------|
|----------------|----------------------------------------------------------|
|
| W                 W
|----------------|----------------------------------------------------------|
|----------------|----------------------------------------------------------|
|-4--------------|--4-------------------------------------------------------|
|-4--------------|--4-------------------------------------------------------|
|-2--------------|--2-------------------------------------------------------|
|----------------|----------------------------------------------------------|


  G
   W                                                  +W
   |                                                   |
   /                                                   /

                                                       ~~~~
            |---3----|
   Q       +E   +E   E  E  +S        a   +S   +Q      +W
|--------------------------------------------------|---------|
|--------------------------------------------------|---------|
|-12b14===(12)r(12)-11-12-(12)b14==(12)r(12)-(12)--|-(12)----|
|--------------------------------------------------|---------|
|--------------------------------------------------|---------|
|--------------------------------------------------|---------|
|
|  W                                                   W
|--------------------------------------------------|---------|
|--------------------------------------------------|---------|
|--------------------------------------------------|---------|
|--5-----------------------------------------------|---5-----|
|--5-----------------------------------------------|---5-----|
|--3-----------------------------------------------|---3-----|


  Q=120
  Em
    W
    |
    /

            \1.5
    E    E  E.     +S    E..    T        +Q
|----------------------------------------------|
|----------------------------------------------|
|-\(0)------9------(9)--11-----12pb14r==(12)---|
|----------------------------------------------|
|----------------------------------------------|
|----------------------------------------------|
|
|   W
|----------------------------------------------|
|----------------------------------------------|
|----------------------------------------------|
|---2------------------------------------------|
|---2------------------------------------------|
|---0------------------------------------------|


  +W
   |
   /

   a      +E   a     +E    a      +E   a     +E    a      +Q.    E
|---------------------------------------------------------------------|
|-12pb14r(12)--8pb10r(8)--------------------------10pb12r(10)---------|
|-------------------------11pb12r(11)--9pb11r(9)-----------------9----|
|---------------------------------------------------------------------|
|---------------------------------------------------------------------|
|---------------------------------------------------------------------|
|
| +W
|---------------------------------------------------------------------|
|---------------------------------------------------------------------|
|---------------------------------------------------------------------|
|-(2)-----------------------------------------------------------------|
|-(2)-----------------------------------------------------------------|
|-(0)-----------------------------------------------------------------|


  Q=105   H.=H
  Bm
   W
   |
   /

       ~~
                    |-----5-----|              |-----5-----|
   a   H     a  E   T  T  T  T  T  T  T  T  T  T  T  T  T  T
|-----------14s15--14-12-------------------------------------|
|------------------------15-14-12----------------------------|
|-----11--------------------------14-12-11-------------------|
|-(x)--------------------------------------14-12-11----------|
|---------------------------------------------------14-12-10-|
|------------------------------------------------------------|
|
|  W
|------------------------------------------------------------|
|------------------------------------------------------------|
|--4---------------------------------------------------------|
|--4---------------------------------------------------------|
|--2---------------------------------------------------------|
|------------------------------------------------------------|


                                               Q=88    H.=H
                                                       G          F#
                                                |---------3---------|
   H                                           +Q       Q           Q
   |                                            |       |           |
   /                                            /       /           /

                                                \0.5
                                                |---------3---------|
   T   T  T T  T  T T  T  T T  T  T T  T  T  T  Q       Q   a      +Q
|-------------------------------------------------------------------------|
|-------------------------------------------10-12-------------------------|
|-----------------------------------9-11-12------------12--11pb12r(11)----|
|---------------------------9-11-12---------------------------------------|
|-------------------9-10-12-----------------------------------------------|
|-14--12-10S9-10-12-------------------------------------------------------|
|
|                                               |---------3---------|
| +H                                           +Q       Q           Q
|-------------------------------------------------------------------------|
|-------------------------------------------------------------------------|
|-(4)------------------------------------------(4)------------------------|
|-(4)------------------------------------------(4)------5-----------4-----|
|-(2)------------------------------------------(2)------5-----------4-----|
|-------------------------------------------------------3-----------2-----|


  Q=65
  F
   W               +W                                         +W
   |                |                                          |
   /                /                                          /

                          \1.5/    \1.5/    \1.5/
   ~~
   W               +E    +E       +E       +E       +H        +W
|---------------|------------------------------------------|---------*|
|---------------|------------------------------------------|---------*|
|-10------------|-(10)--(10)-----(10)-----(10)-----(10)----|-(10)----*|
|---------------|------------------------------------------|---------*|
|---------------|------------------------------------------|---------*|
|---------------|------------------------------------------|---------*|
|
|  W               +W                                         +W
|---------------|------------------------------------------|---------*|
|---------------|------------------------------------------|---------*|
|---------------|------------------------------------------|---------*|
|--3------------|--(3)-------------------------------------|--(3)----*|
|--3------------|--(3)-------------------------------------|--(3)----*|
|--1------------|--(1)-------------------------------------|--(1)----*|



Duration Legend
---------------
W - whole; H - half; Q - quarter; E - 8th; S - 16th; T - 32nd; X - 64th; a - acciaccatura
+ - note tied to previous; . - note dotted; .. - note double dotted
Uncapitalized letters represent notes that are staccato (1/2 duration)
Irregular groupings are notated above the duration line
Duration letters will always appear directly above the note/fret number it represents the
duration for.  Duration letters with no fret number below them represent rests.  Multi-
bar rests are notated in the form Wxn, where n is the number of bars to rest for.  Low
melody durations appear below the staff

Tablature Legend
----------------
 h   - hammer-on
 p   - pull-off
 b   - bend
 pb  - pre-bend
 r   - bend release (if no number after the r, then release immediately)
 /\  - slide into or out of (from/to "nowhere")
 s   - legato slide
 S   - shift slide
<n> - natural harmonic
[n]  - artificial harmonic
n(n) - tapped harmonic
 ~   - vibrato
 tr  - trill
 T   - tap
 TP  - trem. picking
 PM  - palm muting
\n/  - tremolo bar dip; n = amount to dip
 \n  - tremolo bar down
 n/  - tremolo bar up
/n\  - tremolo bar inverted dip
 =   - hold bend; also acts as connecting device for hammers/pulls
 <> - volume swell (louder/softer)
 x   - on rhythm slash represents muted slash
 o   - on rhythm slash represents single note slash

Misc Legend
-----------
 |  - bar
||  - double bar
||o - repeat start
o|| - repeat end
*|  - double bar (ending)
 :  - bar (freetime)
 $  - Segno
 &  - Coda
Tempo markers - <E/E./Q/Q./H/H.> = BPM(8/16=s8/s16), where s8 = swing 8ths, s16 = swing 16ths


** Generated using Power Tab Editor by Brad Larsen: The Official Power Tab Web Site